a b c d e f g h i j k l m n o p q r s t u v w x y z 0-9

Sorpresa De Shangai

Patricio Rey Y Sus Redonditos De Ricota

			
intro

guitarra:

e|-----------------------------|--|---------------------------|--|
B|-----------------------------|--|---------------------------|--|
G|-----------------------------|x2|---------------------------|x2|
D|-----------------------------|--|----7----7----7--------9-7-|--|
A|------5---5-----5--------7-5-|--|--9----7----9--9--7-7------|--|
E|----7---5-----7---7--5-5-----|--|---------------------------|--|
  PM  .   .     ....   ...           .    .    ....  ...

G|-----------------------------|--|---------------------------|--|
D|-----------------------------|--|---------------------------|--|
A|-----------------------------|x2|----5----5----5--------7-5-|x2|
G|---7-------7-------------|--|--7----5----7--7--5-5------|--|

sigue...

guitarra
e|-----------------------------------------------------|----|---------------------------|
B|-----------------------------------------------------|----|---------------------------|
G|-4--2-xxxxxxxx--4-4-2-4-2-xxxxxxxx--4-4-2--4-2-|-X2-|-xxxxxxxx-4----------------|
D|-4--2-xxxxxxxx--4-4-2-4-2-xxxxxxxx--4-4-2--4-2-|----|-xxxxxxxx-4----------------|
A|-----------------------------------------------------|----|---------------------------|
E|-----------------------------------------------------|----|------------0-0-2-3-3-2~-|

BAJO:
G|-----------------------------------------------------|----|---------------------------|
D|-----------------------------------------------------|-X2-|---------------------------|
A|----5---5-----5--------7-5----5---5---5--------7--5--|----|---5---5-------------------|
E|--7---5----7----7--5-5------7---5---7---7--5-5-------|----|-7---5------0-0-2-3-3-2--|


VERSO
               RIFF                  DO°
e|------------------------------------------||
B|---------------------------------4---4-/--||
G|------------------------x-x-x-x--2-x-2-/--|| X4
D|------------------------x-x-x-x--4-x-4-/--||
A|--2--2----2-----3-2--2--x-x---------------||
E|--0--0--3---5-5------0--------------------||

BAJO:
G|------------------------------------------|| X4
D|------------------------------------------||
A|----------2-----3-2-----------------------||
E|--0--0--3---5-5------0--------------------||

      riff                    DOº
      Tengo el hocico listo
      riff                DOº
      estoy acalorado
      riff                               DOº
      voy a chasquear la lengua, un poco
      riff                      DOº
      voy a escupir misiles


ESTRIBILLO:

MI              RE   Riff1
      ¡Puro veneno,
NI                RE   Riff2
      risas que duelen! 

     mi         re      Riff1            mi           re    riff2                                
e|-------------2---------3-3-2-|---------------------------------------|
B|-------------3----3----3-------|------------------------------5--------|
G|--9--9--9-9--2------2----------|---9--9---9---9--7----7---------7--|
D|--9--9--9-9--0--0--------------|---9--9---9---9--7--7---7-----7------|
A|--7--7--7-7----------------------|---7--7---7---7--5-------------------|
E|---------------------------------|---------------------------------------|
   pu-ro ve-ne -no                    ri-sas que due-len

BAJO:   mi      re                        mi          re
A|---------------------------------|---------------------------------------|
E|---------------------------------|---------------------------------------|
A|--7--7--7-7--5-----------------|---7--7---7---7--5-------------------|
E|---------------------------------|---------------------------------------|

VERSO 2: igual pero guitarra 2 hace :
 
guitarra 2:
    fill 1           fill2 
e|----------------|-12------------|
B|----------------|-12-/10-/8-----|
G|--3-p0---2/4~~~-|-----------9~|
D|----------------|---------------|
A|----------------|---------------|
E|----------------|---------------|


riff               DOº
Acostumbre el pellejo
riff              DOº + fill1
a los ultravioletas
riff               DOº
voy a tumbarme a la Bartola
riff                  DOº + fill2
sobre unos terciopelos.


ESTRIBILLO 2: igual


MI              RE   Riff1
¡El que abandona 
MI              RE   Riff2
no tiene premio!

OUTRO:
guitarra    vuelta
e|------|----|----|-----|----|-----|---------||
B|------|----|----|-----|----|-----|---------||
G|------|----|----|-----|----|-7-|--REsus4-|| X4
D|------|--4-|-7--|-5-5-|--9-|-7-|---------||
A|--5-5-|--2-|-5--|-3-3-|--7-|-5-|---------||
E|--3-3-|----|----|-----|----|-----|---------||
   sol5   si   re   do    mi    re5

BAJO:
G|------|----|----|-----|----|-----|---------||
D|------|----|----|-----|--2-|-----|--dejar--|| X4
A|------|--2-|-5--|-3-3-|----|-5-|--sonar--||
E|--3-3-|----|----|-----|----|-----|---------||

    vuelta 1
¿A quien le importa?          *la vuelta es una de las 4 veces que se toca el outro.
  vuelta 2
¡Toda esta guinda!
  vuelta 3
¡Si te sofoca! 
 vuelta 4
¿A quien le importa?


SOLO DE SAXO:      

Fuente original ATAME [www.atame.org]
Colaborador original: GUILLE [elguille665@hotmail.com]

Fuente: tusacordes.com