a b c d e f g h i j k l m n o p q r s t u v w x y z 0-9

Sorpresa De Shangai

Patricio Rey Y Sus Redonditos De Ricota

			
Intro: con riff 1 + riff 2 + riff 3

Con riff 4
Em           Am    Em   C° 
  Tengo el hocico listo 
Em       Am  Em   C°
  estoy acalorado
Em             Am     Em            C°
  voy a chasquear la lengua un poco
Em           Am   Em      C°
  voy a escupir mísiles.
 C          D  Dsus4-D
  ¡Puro veneno,
 C              D  Dsus4-D
  risas que duelen!


Acostumbre el pellejo
a los ultravioletas
voy a tumbarme a la bartola
		      Riff 5	
sobre unos terciopelo.
 
¡El que abandona,
no tiene premio!

G C Dsus4 Con Riff 6
               C9
¿A quien le importa?
G C Dsus4            C9
         ¡Toda esa guinda!

¡Si te sofoca!
¿A quien le importa?

igualcon riff 4
Están contando chistes
detrás de las paredes.
Si de reír se trata creo,
son verdaderos dramas. 
¡El bote roto!¿A quien le importa?

igual con riff 4
Mis penas como piedras
caen, ruedan y escapan.
Falopas duras en tipos blandos
ahuecan corazones.
¡Caras de liebre!¡De liebre muerta!

¿A quien le importa?¡Toda esta guinda!
¡Si te sofoca! ¿A quien le importa?
       G C Dsus4              C9      Em
Final:          ¿A quien le importa?  



Riff 1:
				x2
1|------------------------|-------------
2|------------------------|-------------
3|------------------------|-------------
4|------------------------|-------------
5|---5---5---5-------7-5--|-------------
6|-7---5---7---7-5-5------|-------------

Riff 2:

1|-----------------------|--------------
2|-----------------------|--------------
3|-----------------------|--------------
4|---5---5---5-------7-5-|--------------
5|-7---5---7---7-5-5-----|--------------
6|-----------------------|--------------

Riff 3:
                                   x2
1|---------------------------------|-------------|
2|---------------------------------|-------------|
3|-4-2-x-x-x-x-x-x-4-4-2-4-2-x-x-x-|-x-x-4-------|
4|-4-2-x-x-x-x-x-x-4-4-2-4-2-x-x-x-|-x-x-4-------|
5|---------------------------------|-------------|
6|---------------------------------|-------3-3-2-|

Riff 4:

1|-------------------|------------------
2|-------------------|-4-4-4------------
3|-------------------|-2-2-2------------
4|-------------------|-4-4-4------------
5|-------2-0-0-3-2---|------------------
6|-0-0-3-----------0-|------------------

Riff 5:       Riff 6 
         
1|----------|------------------3------3--|--
2|-8p5-5----|------------------3------3--|--
3|-------7--|------------------2------0--|--
4|----------|------------2-0-0------2----|--
5|----------|--------3-3----------3------|--
6|----------|-3-3-3----------------------|--

 Em  Am  C°  G   C Dsus4  C9
-0-|-0-|-x-|-3-|-0-|-3--|-3-|-
 0-|-1-|-4-|-0-|-1-|-3--|-3-|-
-0-|-2-|-2-|-0-|-0-|-2--|-0-|-
-2-|-2-|-4-|-0-|-2-|-0--|-2-|-
-2-|-0-|-3-|-2-|-3-|-x--|-3-|-
-0-|-x-|-x-|-3-|-x-|-x--|-x-|-

Fuente original ATAME [www.atame.org]
Colaborador original: Curda [santi_elquemero hotmail.com]

Fuente: tusacordes.com