a b c d e f g h i j k l m n o p q r s t u v w x y z 0-9

Soga De Cain

Patricio Rey Y Sus Redonditos De Ricota

			
GUITARRA:

E|------7-9-7--------|
B|--7-9---------9-9~~--|
G|---------------------|
D|---------------------|
A|---------------------|
E|---------------------|

E|-10b-----------------|
B|------12-10-9~~----|
G|---------------------|
D|---------------------|
A|---------------------|
E|---------------------|


E|---------------------|
B|-19-16-19/-21--------| 
G|---------------------|
D|---------------------|
A|---------------------|
E|---------------------|
                               SAXO
E|------7-9-7--------|   |-18h19--18h19-------------|
B|--7-9---------9-9~~--|   |--------------18h19-------|
G|---------------------|   |--------------------16/-|
D|---------------------|   |--------------------------|
A|---------------------|   |--------------------------|
E|---------------------|   |--------------------------|


E|---------------------|
B|--19.-19.-19./21-----|
G|---------------------|
D|---------------------|
A|---------------------|
E|---------------------|

fin.

Fuente original ATAME [www.atame.org]
Colaborador original: guille [elguille665@hotmail.com]

Fuente: tusacordes.com