a b c d e f g h i j k l m n o p q r s t u v w x y z 0-9

Shopping Disco-zen

Patricio Rey Y Sus Redonditos De Ricota

			
intro

guitarra

e|-----------------------|--|--------------||
B|----7--7---7--5----5-7-|--|---7--7--7--||
G|--6---6---6--6---6-----|X3|--6--6--6-----||
D|-----------------------|--|--------------||
A|-----------------------|--|--------------||
E|-----------------------|--|--------------||

BAJO: entra en la tercera vuelta de guitarra

G|---------------|-----------------||
D|---------------|-----------------||X1
A|---------------|-----------------||
E|--2--0-/2--|-2-2-2-2-2-2-----||

sigue asi...
guitarra
    SI rasgueo        LA rasgueo
E|--9--9--9-------|-5------5-5-5-5--||
B|--9--9--9-------|-5------5-5-5-5--||
G|--8--8--8-------|-6------6-6-6-6--|| X4
D|--9--9--9-x-----|-7-7-7--7-7-7-7--||
A|--9--9--9-x-----|-7-7-7-----------||
E|--7--7--7-x-----|-5-5-5-----------||

BAJO:
G|----------------|-----------------||
D|----------------|-----------------||x4
A|----------------|-----------------||
E|-7------------|-5-------------||


VERSO: 
guitarra:

         SI              SOLm                  SI               SOL
E|--9--9--9--------|-10-10-10--------|--9--9--9--------|-------3--|
B|--9--9--9--------|-11-11-11--------|--9--9--9--------|-------3--|
G|--8--8--8--------|-12-12-12--x-x---|--8--8--8--------|-4---4--| X2
D|--9--9--9-x-x-x-x|-12-12-12--x-x---|--9--9--9-x-x-x-x|-5---5--|
A|--9--9--9-x-x-x-x|-10-10-10--x-x---|--9--9--9-x-x-x-x|-5------|
E|--7--7--7-x-x-x-x|-----------------|--7--7--7-x-x-x-x|-3--/---|

BAJO:
         SI              SOLm                  SI               SOL
G|-------------------|-----------------|-------------------|----------|
D|-------------------|-----------------|-------------------|----------|x2
A|-------------------|-10-10--10-10-10-|-------------------|----------|
E|---7--7----------|-----------------|--7----/---------|-3------|

Si                SOL    SI           SOL
Tengo buenas y malas noticias para vos
SI              SOL         SI        SOL
la belleza es lo que te da felicidad


ESTRIBILLO:

guitarra
    SI rasgueo        LA rasgueo
E|--9--9--9-------|-5------5-5-5-5--||
B|--9--9--9-------|-5------5-5-5-5--||
G|--8--8--8-------|-6------6-6-6-6--|| X4
D|--9--9--9-x-----|-7-7-7--7-7-7-7--||
A|--9--9--9-x-----|-7-7-7-----------||
E|--7--7--7-x-----|-5-5-5-----------||

BAJO:
G|----------------|-----------------||
D|----------------|-----------------||x4
A|----------------|-----------------||
E|-7------------|-5-------------||

SI LA                       SI           LA
     si todo gira en el Shopping disco-zen
SI LA                       SI           LA
     tu belleza es de shopping disco-zen



VERSO 2; igual

Si                SOL    SI           SOL
Un desayuno de campeones ordenas.
Si                SOL    SI           SOL
y con tu propia lenga te extrangulas



ESTRIBILLO 2: igual
SI LA                       SI           LA
    si vas de gira en el shopping disco-zen
SI LA                       SI           LA
    tu belleza es de shopping disco-zen


SOLO DE GUITARRA:

BAJO: durante:

G|---------------------|----------------|--|-------------------------|----------|
D|-------------------2-|----------------|x2|-----------------------4-|----------|X2
A|----------2-2--3-4---|----------------|--|--------------4-4--5-6---|-4--------|
E|-2-2--5-5------------|-2-2--5-2-0-2-|--|-4-4-4-4--7-7------------|---7--4-4-|

G|------------------------|----------------|---------|--------------------|------------|-------|
D|------------------------|----------------|---------|--------------------|------------|-------|
A|-4-4--2----4-2------2h3-|-4-4--2---4--2--|---------|--------------------|------------|-------|
E|--------4-------2h4-----|--------4-------|-4-4-4-4-|-7-7-7-7-7-7-7-7-7-7|-3333333333-|--2--|

guitarra:  este solo no me pertenece

|--------|------------|------------|-2-2-2-5-5-2-2|--------|------------ 
|--------|------------|------------|-2-2-2-5-5-2-2|-------4|------------ 
|-2------|--------2-4a|-4e-4-2-----|--------------|--4-2-4-|-4e-2---4-2- 
|----4-4v|-----2------|--------4-4-|--------------|--4-2-4-|------4----4 
|--------|-2^4---4----|------------|--------------|--------|------------ 
|--------|------------|------------|--------------|--------|------------ 

|--------|----------|----------------------|------------|------------|-- 
|--------|----------|----------------------|-6---4-6-6e-|-6e-4-4-----|-- 
|----2-4a|-4-2------|-------4----4---4---4-|-6-6-4-6-6e-|------------|-- 
|2-4-----|-----4-4v-|-------4--6-4-6-4-6-4-|---6--------|--------6-6-|-- 
|--------|----------|-6-6-6----6---6---6---|------------|------------|-- 
|--------|----------|-4-4-4----------------|------------|------------|-- 

|-------------|-------|-----------------|-----------|-------|-4v--|----- 
|-------------|-4-6-4-|-----------------|---6-4---4-|-6-6-6-|-4v--|----- 
|-----4-------|-4-6-4-|---6-4-6-4-----4-|---6-4---4-|-6-6-6-|-----|----- 
|-------4-6-6-|-------|------6----4^6---|-------6---|-------|-----|----- 
|-4^6---------|-------|-4---------------|-4---------|-------|-----|---- 
|-------------|-------|-----------------|-----------|-------|-----|----- 

|-7-7-4-4--------|------------|-----------|-----3v-|---2-2-2-0-0-2----- 
|-7-7-4-4-6-4----|------4-----|-----------|-3------|-2--2-2-2-2-------- 
|---------6-4----|--------4---|-4-4-------|---4----|------------------ 
|-------------6v-|----------4-|-----5-5-5-|--------|------------------ 
|----------------|-2-2--------|-----------|--------|------------------ 
|----------------|------------|-----------|--------|------------------- 

INTERMEDIO:

e|-----------------------|----------------||
B|----7--7---7--5----5-7-|-----7--7--7--||
G|--6---6---6--6---6-----|----6--6--6-----||
D|-----------------------|----------------||
A|-----------------------|----------------||
E|-----------------------|----------------||

BAJO:
G|-----------------------|----------------||
D|-----------------------|----------------||
A|-----------------------|----------------||
E|-----------------------|-2---0-/-2--||


VERSO 3: igual


Si                SOL    SI           SOL
Una coctelera no es una maraca gil!
Si                SOL    SI           SOL
aprende del qeu pone a tu gata el cascabel



ESTRIBILLO 3: igual

SI LA                       SI           LA
   si vas de gira en el shopping disco-zen...
SI LA                       SI           LA
   tu belleza es de shopping disco-zen


VERSO 4:
Si                SOL    SI           SOL
Das un paso mas y sos carne muerta ois!?
Si                SOL    SI           SOL
esta calle es mas angosta de lo que pensas



ESTRIBILLO 4: igual

SI LA                       SI           LA
   si vas de gira en el shopping disco-zen...
SI LA                       SI           LA
   tu belleza es de shopping disco-zen.


SOLO DE GUITARRA: final.

LA base es igual al estribillo pero.

guitarra
    SI rasgueo        LA rasgueo        si        la
E|--9--9--9-------|-5------5-5-5-5--|--|--7---7-----5-------|
B|--9--9--9-------|-5------5-5-5-5--|--|--7---7-----5-------|
G|--8--8--8-------|-6------6-6-6-6--|x3|--8-

Fuente original ATAME [www.atame.org]
Colaborador original: GUILLE [elguille665@hotmail.com]

Fuente: tusacordes.com