a b c d e f g h i j k l m n o p q r s t u v w x y z 0-9

Semen-up

Patricio Rey Y Sus Redonditos De Ricota

			
SEMEN UP
Intro:

Guitarra 1:
E|----------4~----------------4-4----4-4----4-4-|--------4/7-------------4-4----4-4----4-4-|
B|-3-4-3-4~------3-4------------4-4----4-4----4-4-|3-4-3-4~-----3-4----------4-4----4-4----4-4-|
G|-------------------3-4--------4-4----4-4----4-4-|----------------3-4-------4-4----4-4----4-4-|
D|-----------------------5-6----------------------|--------------------5-6---------------------|
A|------------------------------------------------|--------------------------------------------|
E|----------------------------4------4------4-----|------------------------4------4------4-----|

BAJO:  SOL#
g|------------------------------------------|--|-----------------------|
D|------------------------------------------|x3|-----------------------|
A|------------------------------------------|--|-----------------------|
E|-----------4----4----4------0-----7-----|--|------4------4------4--|

Guitarra 2: SOL#

E|----4-4----4-4----4-4-||
B|----4-4----4-4----4-4-||
G|----4-4----4-4----4-4-|| X5
D|----------------------||
A|----------------------||
E|--4------4------4-----||


sigue asi....

Guitarra 1:
                    punteo 1           punteo 2            SOl#
E|-----------4p0--|---------------|-------------5--4h5p4-|----4----4--------------------|
B|----------------|-----5---------|-----5----------------|----4----4---3-4--------------|
G|----------------|-------4-7~--|-------4-7~---------|-----------------3-4----------|
D|----------------|-4/6-----------|-4/6------------------|---------------------5-6------|
A|-6-5-4-3-2------|---------------|----------------------|------------------------------|
E|-4-3-2-1-0------|---------------|----------------------|-4----4----4--------------4-|

Guitarra 2:
 sol#-sol-Fa#-fa   MI    MI     MI       MI        MI      MI        MI        SOL#
E|-------------------------------------------------------------------------|--4--4--4------4--4-|
B|-------------------------------------------------------------------------|--4--4--4------4--4-|
G|-------------------------------------------------------------------------|--------------------|
D|-------------------------------------------------------------------------|--------------------|
A|-6-5-4-3-2--2-2-2-2--2-2-2-2--2-2-2-2--2-2------2-2-2-2--2-2-2-2--2-2-2-2|------------2~------|
E|-4-3-2-1-0--0-0-0-0--0-0-0-0--0-0-0-0--0-0-3-4--0-0-0-0--0-0-0-0--0-0-0-0|-4--4--4--2---4--4-4|

BAJO:           MI                                                          SOL#
G|-------------------------------------------------------------------------|--------------------|
D|-------------------------------------------------------------------------|--------------------|
A|-------------------------------------------------------------------------|--------------------|
E|-4-3-2-1-0--0-0-0-0--0-0-0-0--0-0-0-0--0-0-3-4--0-0-0-0--0-0-0-0--0-0-0-0|-4--4--4--074--4-4|


VERSO 1:


GUITARRA 1:
   fill 1           fill2       fill 3                fill4
E|-4b-----------|-4-----------|--16-16--------------|-4-----------|
B|-4b---2^0-----|-4-/2--------|--16-16-14-----------|-4-----------|
G|-4b-/-----1~|------4-1~-|-----------16-/13~-|-----4~------|
D|--------------|-------------|---------------------|----------6~-|
A|--------------|-------------|---------------------|---------------|
E|--------------|-------------|---------------------|---------------|

                                 __________X3_______________
GUITARRA 2:                     |                           |
E|--4-4---4-4---4-4-------4-4-||---4-4----4-4----4-4---4-4---||
B|--4-4---4-4---4-4-------4-4-||---4-4----4-4----4-4---4-4---||
G|--4-4---4-4---4-4-----------||---4-4----4-4----4-4---4-4---|| X3
D|----------------------------||-----------------------------||
A|-------------------2~-----||-----------------------------||
E|-4----4-----4-----4----4----||-4------4------4-----4-------||


BAJO:
              SOL#
g|------------------------------------------|--|-----------------------|
D|------------------------------------------|x3|-----------------------|
A|------------------------------------------|--|-----------------------|
E|-----------4----4----4------0-----7-----|--|------4------4------4--|

fill 1                                    fill 2
      Ella tiene una forma de hacerme creer
                               fill 3
 que es para mi la mejor manzana
                            fill 4                                                 
su estilo desprecia mi soņar,
                          estribillo
 con ella soy rico gratis


ESTRIBILLO 1:

Guitarras:
 sol#-sol-Fa#-fa   MI    MI     MI       MI        MI      MI        MI         
E|-------------------------------------------------------------------------||
B|-------------------------------------------------------------------------||
G|-------------------------------------------------------------------------||
D|-------------------------------------------------------------------------||
A|-6-5-4-3-2--2-2-2-2--2-2-2-2--2-2-2-2--2-2------2-2-2-2--2-2-2-2--2-2-2-2||
E|-4-3-2-1-0--0-0-0-0--0-0-0-0--0-0-0-0--0-0-3-4--0-0-0-0--0-0-0-0--0-0-0-0||

BAJO:           MI                                                           
G|-------------------------------------------------------------------------||
D|-------------------------------------------------------------------------||
A|-------------------------------------------------------------------------||
E|-4-3-2-1-0--0-0-0-0--0-0-0-0--0-0-0-0--0-0-3-4--0-0-0-0--0-0-0-0--0-0-0-0||



"La veo casi como un demonio y rasco la alfombra por su amor                               
La veo casi como un demonio y rasco la alfombra por su amor"



PUENTE:
         
GUITARRA1:          punteo
E|---------------------------------------|----4-4----4-4----4-4---4-4---|
B|-----------------3-4-------------------|----4-4----4-4----4-4---4-4---|
G|---------------------3-4---------------|----4-4----4-4----4-4---4-4---|
D|-------------------------5-6-----------|------------------------------|
A|---------------------------------------|------------------------------|
E|-----------------------------4---------|--4------4------4-----4-------|
                    
GUITARRA 2:                
E|--4-4---4-4---4-4------------------4-4-|----4-4----4-4----4-4---4-4---||
B|--4-4---4-4---4-4------------------4-4-|----4-4----4-4----4-4---4-4---||
G|--4-4---4-4---4-4----------------------|----4-4----4-4----4-4---4-4---||  
D|---------------------------------------|------------------------------||
A|------------------------------2~-----|------------------------------||
E|-4----4-----4----------------4----4----|--4------4------4-----4-------||

BAJO:
              SOL#
g|----------------------------------------------||
D|----------------------------------------------||
A|----------------------------------------------||
E|-4----4----4------0-7-4----4------4------4--||


 ESTRIBILLO 2: 

Guitarras:
 sol#-sol-Fa#-fa   MI    MI     MI       MI        MI      MI        MI         
E|-------------------------------------------------------------------------||
B|-------------------------------------------------------------------------||
G|-------------------------------------------------------------------------||
D|-------------------------------------------------------------------------||
A|-6-5-4-3-2--2-2-2-2--2-2-2-2--2-2-2-2--2-2------2-2-2-2--2-2-2-2--2-2-2-2||
E|-4-3-2-1-0--0-0-0-0--0-0-0-0--0-0-0-0--0-0-3-4--0-0-0-0--0-0-0-0--0-0-0-0||

BAJO:           MI                                                           
G|-------------------------------------------------------------------------||
D|-------------------------------------------------------------------------||
A|-------------------------------------------------------------------------||
E|-4-3-2-1-0--0-0-0-0--0-0-0-0--0-0-0-0--0-0-3-4--0-0-0-0--0-0-0-0--0-0-0-0||


y antes de enganchar con el 2 verso hace....

guitarra1;

E|------------------|-------7-------------|
B|--7-10--7---------|---------7-----------|
G|----------9-7-----|-7-9b----9-7----11-|
D|--------------9---|---------------9-----|
A|------------------|---------------------|
E|------------------|---------------------|

Guitarra 2:
     si                SI-SIb-LA
E|-------------------|-----------------|
B|-------------------|-----------------|
G|-------------------|-----------------|
D|-9-9-9-9-9-9-9-9--9|--?--9--8-7----|
A|-9-9-9-9-9-9-9-9--9|-----9--8-7----|
E|-7-7-7-7-7-7-7-7--7|-----7--6-5----|

BAJO:
G|-------------------|-----------------|
D|-------------------|-----------------|
A|-------------------|-----------------|
E|-7-7-7-7-7-7-7-7--7|-----7--6-5----|


VERSO 2: igual
                     Fill2
"Saludable y catolica, 
                     Fill3
no le gusta que ande solo	
	                  Fill4		    
se ha montado en mi nariz        
                            Estribillo 3
 y es para mi la mejor fruta"


ESTRIBILLOS 3: igual a 1

Guitarras:
 sol#-sol-Fa#-fa   MI    MI     MI       MI        MI      MI        MI         
E|-------------------------------------------------------------------------||
B|-------------------------------------------------------------------------||
G|-------------------------------------------------------------------------||
D|-------------------------------------------------------------------------||
A|-6-5-4-3-2--2-2-2-2--2-2-2-2--2-2-2-2--2-2------2-2-2-2--2-2-2-2--2-2-2-2||
E|-4-3-2-1-0--0-0-0-0--0-0-0-0--0-0-0-0--0-0-3-4--0-0-0-0--0-0-0-0--0-0-0-0||


"La veo casi como un demonio 
 y rasco la alfombra por su amor"


PRE-SOLO:

guitarra1; punteo

E|----------|--------7------|--7-----7--------|7------------------7--------|-------10-7---------|
B|7-10-7----|------7--10-7--|-7--10b--10-7----|-10-7--------------7--------|---7-10----10-7-----|
G|------9-7-|79b--------9-|9------------9-7-|-----9b---7--7-9b----7--7-9b|7-9------------97-11|
D|---------9|---------------|----------------9|--------9--9--------9--9----|--------------------|
A|----------|---------------|-----------------|----------------------------|--------------------|
E|----------|---------------|-----------------|----------------------------|--------------------|

GUITARRA2 :
    si                  la                si
E|----------------------------------------------|
B|----------------------------------------------|
G|-8-----------------6----------------8---|
D|-9-----------------7----------------9---|
A|-9-----------------7----------------9---|
E|-7-----------------5----------------7---|

BAJO:
G|-------------|-----------|------------------|
D|-------------|-----------|------------------|
A|-------------|-----------|------------------|
E|--7--7---7---|--5----5---|--7--7---7--------|


SOLO DE GUITARRA:


Guitarra 1:
             SOl#            DO#         SOL#            SIb           SOL#      SOldism sibdism
E|-----12------11~|----11-----9~|-----9----7|------7-----6~|-----6----4~|-----4----3~|-6-|-------
B|----------------|-------------|-----------|--------------|------------|------------|---|-3-4---
G|11-13---13-11---|9-11---11-9--|-8-9---9-8-|--6-8----8-6--|-4-6---4-6--|-3-4---4-3--|---|-------
D|----------------|-------------|-----------|--------------|------------|------------|---|-------
A|----------------|-------------|-----------|--------------|------------|------------|---|-------
E|----------------|-------------|-----------|--------------|------------|------------|---|-------

------------4-4---4-4---4-4--|
------------4-4---4-4---4-4--|
3-4---------4-----4-----4----|
----5-6----------------------|
-----------------------------|
----------4-----4-----4------|

BAJO:   sol#          Do#               SOL#            Sib                       Sol#
G|---------------|--|-------------|--|------------|--|-------------------------|-------------|
D|---------------|x2|-----2-----2-|x2|------------|x2|----------------2-2-2----|-------------|
A|-----2------2--|--|-2-4---2-4---|--|----2-----2-|--|-1-1--1--4-4--4-------4-4|-----2-----2-|
E|-2-4----2-4----|--|-------------|--|2-4---2-4---|--|-------------------------|-2-4---2-4---|
    SOl dism         sibdism
-------------------|----------|-------------|
-------------------|-------?--|-------------|
------1---------1--|---4------|-------------|
-0--3-----0--3-----|-3--------|-----4--4--4-|


GUITARRA 2:
  _______X2_______    ______X2________   _X2_    ____X2_____  __X2_   ______X1_______ 
  |Sol#           |   |  DO#         |  |    |  |   sib     | |   |  | Sol dism      |  Sib dism
E|--4-4-4--4-4-4|--9-9-9--9-9-4|------|-66-6-66-6|-----|-3-3-3--3-3-3-|/-9----|
B|--4-4-4--4-4-4|--9-9-9--9-9-4|------|-55-5-55-5|-----|-2-2-2--2-2-2-|/-8----|
G|------------------|------------------|-SOL#-|-66-6-66-6|-SOL#|-3-3-3--3-3-3-|/-9----|
D|------------------|------------------|------|--------------|-----|-2-2-2--2-2-2-|/-8----|
A|------------------|------------------|------|--------------|-----|------------------|-------|
E|------------------|------------------|------|--------------|-----|------------------|-------|


VERSO 3:

fill 1                                    fill 2
      Ella tiene una forma de hacerme creer
                               fill 4
 que es para mi la mejor manzana
                            fill 1                                                
su estilo desprecia mi soņar,
                          estribillo
 con ella soy rico gratis


ESTRIBILLO 3: Igual

La veo casi como un demonio y rasco la alfombra por su amor
La veo casi como un demonio y rasco la alfombra por su amor
 

PUENTE 2: igual

        
GUITARRA1:          punteo
E|---------------------------------------|----4-4----4-4----4-4---4-4---|
B|-----------------3-4-------------------|----4-4----4-4----4-4---4-4---|
G|---------------------3-4---------------|----4-4----4-4----4-4---4-4---|
D|-------------------------5-6-----------|------------------------------|
A|---------------------------------------|------------------------------|
E|-----------------------------4---------|--4------4------4-----4-------|
                    
GUITARRA 2:                
E|--4-4---4-4---4-4------------------4-4-|----4-4----4-4----4-4---4-4---||
B|--4-4---4-4---4-4------------------4-4-|----4-4----4-4----4-4---4-4---||
G|--4-4---4-4---4-4----------------------|----4-4----4-4----4-4---4-4---||  
D|---------------------------------------|------------------------------||
A|------------------------------2~-----|------------------------------||
E|-4----4-----4----------------4----4----|--4------4------4-----4-------||

BAJO:
              SOL#
g|----------------------------------------------||
D|----------------------------------------------||
A|----------------------------------------------||
E|-4----4----4------0-7-4----4------4------4--||



REPITE ESTRIBILLO Igual al 2 

Guitarras:
 sol#-sol-Fa#-fa   MI    MI     MI       MI        MI      MI        MI         
E|-------------------------------------------------------------------------||
B|-------------------------------------------------------------------------||
G|-------------------------------------------------------------------------||
D|-------------------------------------------------------------------------||
A|-6-5-4-3-2--2-2-2-2--2-2-2-2--2-2-2-2--2-2------2-2-2-2--2-2-2-2--2-2-2-2||
E|-4-3-2-1-0--0-0-0-0--0-0-0-0--0-0-0-0--0-0-3-4--0-0-0-0--0-0-0-0--0-0-0-0||

BAJOigual

y antes de enganchar con el solo 2 hace...

guitarra1;

E|------------------|-------7-------------|
B|--7-10--7---------|---------7-----------|
G|----------9-7-----|-7-9b----9-7----11-|
D|--------------9---|---------------9-----|
A|------------------|---------------------|
E|------------------|---------------------|

Guitarra 2:
     si                SI-SIb-LA
E|-------------------|-----------------|
B|-------------------|-----------------|
G|-------------------|-----------------|
D|-9-9-9-9-9-9-9-9--9|--?--9--8-7----|
A|-9-9-9-9-9-9-9-9--9|-----9--8-7----|
E|-7-7-7-7-7-7-7-7--7|-----7--6-5----|

BAJO:
G|-------------------|-----------------|
D|-------------------|-----------------|
A|-------------------|-----------------|
E|-7-7-7-7-7-7-7-7--7|-----7--6-5----|


SOLO DE GUITARRA 2: igual

Guitarra 1:
             SOl#            DO#         SOL#            SIb           SOL#      SOldism sibdism
E|-----12------11~|----11-----9~|-----9----7|------7-----6~|-----6----4~|-----4----3~|-6-|-------
B|----------------|-------------|-----------|--------------|------------|------------|---|-3-4---
G|11-13---13-11---|9-11---11-9--|-8-9---9-8-|--6-8----8-6--|-4-6---4-6--|-3-4---4-3--|---|-------
D|----------------|-------------|-----------|--------------|------------|------------|---|-------
A|----------------|-------------|-----------|--------------|------------|------------|---|-------
E|----------------|-------------|-----------|--------------|------------|------------|---|-------

------------4-4---4-4---4-4--|
------------4-4---4-4---4-4--|
3-4---------4-----4-----4----| X2    FADE OUT
----5-6----------------------|
-----------------------------|
----------4-----4-----4------|

Fuente original ATAME [www.atame.org]
Colaborador original: Guille [elguille665@hotmail.com]

Fuente: tusacordes.com