a b c d e f g h i j k l m n o p q r s t u v w x y z 0-9

Semen-up

Patricio Rey Y Sus Redonditos De Ricota

			
Intro
G|---------------|x3
D|---------------|
A|---------------|
E|-5--5--5--5-4--|

 |-------------------------------------|
 |-------------------------------------|
 |-------------------------------------|
 |-5--5--5--5-3-2-1-000000-1-2-0000000-|

 |------------------------|
 |------------------------|
 |------------------------|
 |-5--5--5--5-4--5--5--5--|

Verso
G|----------------------------------------|
D|----------------------------------------|
A|----------------------------------------|
E|-5--5--5--5-4--5--5--5--5--5--5--5--5-4-|

Coro
G|-------------------------------------|
D|-------------------------------------|
A|-------------------------------------|
E|-5--5--5--5-3-2-1-000000-1-2-0000000-|

 |---------------------------------------------------|
 |---------------------------------------------------|
 |---------------------------------------------------|
 |-5--5--5--5-4--5--5--5--5-3-2-1-000000-1-2-0000000-|
 
 |-------------------|
 |-------------------|
 |-------------------|
 |-555555555-5-3-2-1-|

Verso
G|----------------------------------------|
D|----------------------------------------|
A|----------------------------------------|
E|-5--5--5--5-4--5--5--5--5--5--5--5--5-4-|

Coro
G|-------------------------------------|
D|-------------------------------------|
A|-------------------------------------|
E|-5--5--5--5-3-2-1-000000-1-2-0000000-|

 |---------------------|
 |---------------------|
 |---------------------|
 |-5-5-5-5-4-5-|

Solo de Guitarra
G|-------------------------|
D|-------------------------|
A|---4-7---4-7---4-7---4-7-|
E|-5-----5-----5-----5-----|

 |-------------------------|
 |---1-4---1-4---1-4---1-4-|
 |-2-----2-----2-----2-----|
 |-------------------------|

 |-------------------------|
 |-------------------------|
 |---4-7---4-7---4-7---4-7-|
 |-5-----5-----5-----5-----|

 |-----------------------|
 |-----------------------|
 |---1111-2222-3333-4444-|
 |-5---------------------|

Escuchá la canción para saber el ritmo

Fuente original ATAME [www.atame.org]
Colaborador original: Sebastián Vidondo [rojoamargodelsiglo@yahoo.com.ar]

Fuente: tusacordes.com