a b c d e f g h i j k l m n o p q r s t u v w x y z 0-9

Semen-up

Patricio Rey Y Sus Redonditos De Ricota

			
La cancion esta en Am y lleva dos guitarras una hace los riffs
y la otra las bases


Intro: Riff 1 x2

Abm + Riff 1
Ella tiene una forma de hacerme creer que es para mi la mejor manzana
                                                      Ab5-G5-Gb5-F5 progresion descendente
su estilo desprecia mi soņar, con ella soy rico gratis

E + Riff 2                                             Abm
La veo casi como un demonio y rasco la alfombra por su amor
E                                                         B-B-Bb-A progresion descendente
La veo casi como un demonio y rasco la alfombra por su amor

Abm + Riff 1
Saludable y catolica, no le gusta que ande solo
								     Ab5-G5-Gb-F5  progresion descendente
se ha montado en mi nariz y es para mi la mejor fruta

E + Riff 2                                                B-Aadd9-B
La veo casi como un demonio y rasco la alfombra por su amor

Semen up


Solo


Ella tiene una forma de hacerme creer que es para mi la mejor manzana

su estilo desprecia mi soņar, con ella soy rico gratis


La veo casi como un demonio y rasco la alfombra por su amor

La veo casi como un demonio y rasco la alfombra por su amor
 
Solo x2 fin
--------------------------------------------------------------------

Riff 1:

E:-------------4---4---4-------------------4---4---4--
B:-3-4-3-4-----4---4---4---3h4-------------4---4---4--
G:-------------4---4---4-------3h4---------4---4---4--
D:---------------------------------5h6----------------
A:----------------------------------------------------
E:------------4---4---4-------------------4---4---4---

Riff 2:

E:-------------------------------------------------------------------------
B:-------------------------------------------------------------------------
G:-------------------------------------------------------------------------
D:-------------------------------------------------------------------------
A:-6-5-4-3---2-2-4-4--2-2-4-4--2-2-4-4--2-2------2-2-4-4--2-2-4-4--2-2-4-4-
E:-4-3-2-1---0-0-0-0--0-0-0-0--0-0-0-0--0-0-3h4--0-0-0-0--0-0-0-0--0-0-0-0-

Solo:

E:------12------11------11-----9--------9----7---------7-----6--------6----4--------4----3--6-
B:---------------------------------------------------------------------------------------------
G:-11-13---13-11----9-11---11-9-----8-9---9-8------6-8----8-6-----4-6---4-6-----3-4---4-3------
D:---------------------------------------------------------------------------------------------
A:---------------------------------------------------------------------------------------------
E:---------------------------------------------------------------------------------------------

E:-----------------4---4---4--
B:-3h4-------------4---4---4--
G:-----3h4---------4---4---4--
D:---------5h6----------------
A:----------------------------
E:----------------4---4---4---

Legenda

<>= Armonicos                 / = Arrastres
~ = Vibratos                  p = Lidago descendente o Pull off 
__3__ = Trecillos             h = Lidado ascendente o Hammer on
^ = Estiradas o Bends         r = Soltar la estirada
x = Silencio de cuerda        s = Mover la pua rapido y continuo
                              t = tapping

Acordes:

Abm: 577555
Ab5: 577
G5:  355
Gb5: 244
F:   133
E:   021100
B:   224442
Bb:  688
Aadd9:  5776
Dbm:    x57765
Gdism:  xx2323
Bbdism: xx7878

Otro trabajo de Guillo!!!

En breve voy a mandar mas tablaturas de Los Redondos Aguanten carajo

Un salado para todo Rosario Argentina y el Colegio Parque Espaņa

Fuente original ATAME [www.atame.org]
Colaborador original: Guillermo Belfiori [guillocharly@hotmail.com]

Fuente: tusacordes.com