a b c d e f g h i j k l m n o p q r s t u v w x y z 0-9

Semen Up

Patricio Rey Y Sus Redonditos De Ricota

			
G|----------------|
D|----------------|  
A|------------2---|  X3
E|-4--4--4--0---4-|


G|------------------------------------------------|
D|------------------------------------------------|  
A|------------------------------------------------| 
E|-4--4--4--4-3-2-1-000000000000-0-3-4-00000000000|


G|----------------|
D|----------------|  
A|------------2---|  X4
E|-4--4--4--0---4-|

G|------------------------------------------------|
D|------------------------------------------------|  
A|------------------------------------------------| 
E|-4--4--4--4-3-2-1-000000000000-0-3-4-00000000000|



G|----------------|
D|----------------|  
A|------------2---|  X1
E|-4--4--4--0---4-|

G|-------------------------------------|
D|-------------------------------------|  
A|-------------------------------------| 
E|-4--4--4--4-3-2-1-000000000000-0-3-4-|


G|-----------------------------|
D|-----------------------------|  
A|-----------------------------| 
E|-000000000000-77777777--7-6-5|

G|----------------|
D|----------------|  
A|------------2---|  X3
E|-4--4--4--0---4-|

G|-------------------------------------|
D|-------------------------------------|  
A|-------------------------------------| 
E|-4--4--4--4-3-2-1-000000000000-0-3-4-|


G|-------------------------------------|
D|-------------------------------------|  
A|-------------------------------------| 
E|-000000000000-77777777-555-777777777-|


G|----------------|
D|----------------| x3
A|---2------2-----|
E|-4----2-4-------|


puente 1
G|----------------|
D|----------------|
A|-----2----------|
E|-2-4---4-2------|


G|----------------|
D|---2-----2------|
A|-4---2-4--------| x3
E|----------------|


puente 2
G|----------------|
D|-----2----------|
A|-2-4---4-----2--|
E|---------2-4----|


y se vuelve a repetir toda

SaludosFuente: Tus acordes