a b c d e f g h i j k l m n o p q r s t u v w x y z 0-9

Salando Las Heridas

Patricio Rey Y Sus Redonditos De Ricota

			
intro

Guitarra:

E|------------------------------------|--|---------------------------------------------|
B|---------------9--------------------|--|---------------------------------------------|
G|------------10----------------------|X3|---------------------------------------------|
D|---------10---------------------7-|--|------5~------dejar nota sonando---------|
A|--5--7--8--------88-----------7-7-|--|--7-8----------------------------------------|
E|---------------------8-7-5----5-5-|--|---------------------------------------------|

BAJO
G|------------------------------------|--|---------------------------------------------|
D|------------------------------------|--|------5------dejar nota sonando----------|
A|--5--7-8--------------------------|X3|--7-8----------------------------------------|
E|---------------------8-75---------|--|---------------------------------------------|



VERSO 1:

riff 1
      Saliste ya mil veces
riff 1
      de la pista a respirar
riff 1
      a reclutar, bien maquillado
riff 2                    
      y ocultando tu lunar.
                 

Guitarra: Riff 1                                    Riff 2
E|-------------------------------------|--|------------------------------------|
B|-------------------------------------|--|------------------------------------|
G|-------------------------------------|X3|------------------------------------|
D|-5--------------------7-7--9-9-------|--|-5--------------------7-7--9-9------|
A|---8-7-5-7-8----------5-5--7-7--7-7--|--|---8-7-5-7-8----------5-5--7-7------|
E|--------------------------------5-5--|--|--------------------------------/---|
                      PM...  ...  ...                            ...  ...
BAJO
G|-------------------------------------|--|------------------------------------|
D|-------------------------------------|X3|------------------------------------|
A|-------5-7-8----------5-5--7-7-------|--|-------5-7-8----------5-5--7-7------|
E|--------------------------------5-5--|--|--------------------------------/---|


ESTRIBILLO:

LAm      LAm/sol
      Un dia el bote volco
                    LAm /fa#*
      y el premio a pique se fue
               LAsus4/FA
      todos te daban por muerto
      LA                  Sol 
      y vos alli en tu remolque
                         Fa y corta
      sin luz, como un polizon.



Guitarra:  LAm            Lam/sol        LAm /fa#*           LAsus4/FA

E|---------0------0-|--------0------0-|-------0-----0---|---------0---------0-----||
B|-----------1------|----------1------|---------1-------|------------3------------||
G|------2------2----|-----2------2----|-----2-----2-----|------2--------2---------||
D|----2-------------|---2-------------|---0-------------|----0--------------------||X1
A|--0---------------|-----------------|-----------------|-------------------------||
E|------------------|-3---------------|-2---------------|-1-----------------------||

BAJO:
          LA                SOL             FA#             FA
G|------------------|-----------------|-----------------|-------------------------||
D|------------------|-----------------|-----------------|-------------------------||X1
A|------------------|-----------------|-----------------|-------------------------||
E|--5-5-5-5-5-5-5-0-|-3-3-3-3-3-3-3-0-|-2-2-2-2-2-2-2-0-|-1-1-1-1-1-1-1-1-1-/-----||

y despues...

guitarra y bajo hacen       LA.   -   Sol    -    FA    y corta

guitarra
         LA                SOL                  FA             
e|------------------|-----------------|----------------------------------|
B|------------------|-----------------|----------------------------------|
G|------------------|-----------------|----------------------------------|
D|------------------|-----------------|----------------------------------|X1
A|--7-7-7-7-7-7-7-7-|-5-5-5-5-5-5-5-5-|-3-3-3-3-3-3-3-3----3.------------|
E|--5-5-5-5-5-5-5-5-|-3-3-3-3-3-3-3-3-|-1-1-1-1-1-1-1-1----1.-silencio-|

bajo:    LA               SOl               FA                            
G|------------------|-----------------|----------------------------------|
D|------------------|-----------------|----------------------------------|X1
A|------------------|-----------------|----------------------------------|
E|--5-5-5-5-5-5-5-5-|-3-3-3-3-3-3-3-3-|-1-1-1-1-1-1-1-1----1.-silencio-|


VERSO 2: igual al 1

riff 1
      Mira que tipo espeso
riff 1
      sumiso como un guiso mas
riff 1
      un vago de mil caravanas
riff 2
      a punto de quedar a pie .


Estribillo 2. La guitarra es igual al 1 , nada mas cambia el bajo

LETRA:

LAm      LAm/sol
      Fundiendo plomo logras
                    LAm /fa#*
      chorros de oro cochino
               LAsus4/FA
      en besos de lo mas desnudos
     LA                  Sol 
      pero el cafe con tu suerte 
                         Fa y corta
      se enfria en mi mesa fria


BAJO:
          LA                SOL           FA#             FA
G|------------------|-----------------|-----------------|-----------------|
D|------------------|-----------------|-----------------|-----------------|X1
A|------------------|-----------------|-----------------|-----------------|
E|--5-5-----------|-3-3-----------|-2-2-----------|-1-1-----------|

    LA               SOl               FA                            
G|------------------|-----------------|----------------------------------|
D|------------------|-----------------|----------------------------------|X1
A|------------------|-----------------|----------------------------------|
E|--5-5-5-5-5-5-5-5-|-3-3-3-3-3-3-3-3-|-1-1-1-1-1-1-1-1----1.-silencio-|



PUENTE:  MI7

Guitarra:
     mi7                  mi7
E|--------------------|----------------------|||
B|------------9-------|------------9---------|||
G|------7---------7---|------7----------7--|||X 3
D|----9---9-----9---9-|----9---9------9------|||
A|--7-----------------|--7-------------------|||
E|--------------------|----------------------|||

BAJo: mi                 mi
G|--------------------|----------------------|||
D|--------------------|----------------------|||X 3
A|--------------------|----------------------|||
E|-0----------------|-0------------------|||

y despues...

Guitarra:
     mi7                  mi7
E|--------------------|-----------------------|
B|------------9-------|------------9----------|
G|------7---------7---|------7----------7---|X 1
D|----9---9-----9---9-|----9---9------9-------|
A|--7-----------------|--7--------------------|
E|--------------------|-----------------------|


BAJo:       mi            mi
G|--------------------|-----------------------|
D|--------------------|-----------------------|X 1
A|--------------------|-----------------------|
E|-0----------------|--0-0-0-0-0-0-0-0-0----|



SOLO DE GUITARRA:

BAjo: Durante el solo de guitarra.

        LA                SOL            FA#                FA
G|------------------|-----------------|-----------------|------------------------|||
D|------------------|-----------------|-----------------|------------------------|||X3
A|------------------|-----------------|-----------------|------------------------|||
E|--5-5-5-5-5-5-5-0-|-3-3-3-3-3-3-3-0-|-2-2-2-2-2-2-2-0-|-1-1-1-1-1-1-1-1-1-/----|||

       LA                SOL            FA#                FA
G|------------------|-----------------|-----------------|--------------------------|
D|------------------|-----------------|-----------------|--------------------------|X1
A|------------------|-----------------|-----------------|--------------------------|
E|--5-5-5-5-5-5-5-0-|-3-3-3-3-3-3-3-0-|-2-2-2-2-2-2-2-0-|-1-1--------------------|


GUITARRA: solo.

E|----------|-------------|------|-----------------------|-------------8--5-5b-----|
B|----------|-------------|------|-----------------------|------5--8-8---------------|
G|----------|-------------|------|-------5-8b-7-5-7b-|7b-----------------------|
D|----------|-------------|------|-5-5h7-----------------|---------------------------|
A|----------|-------------|------|-----------------------|---------------------------|
E|-5~---0-|--3~-5p3-0-|-2~-|-----------------------|---------------------------|

E|--------------14h15-15b-12-|-15-12----------------------|-------------------------|
B|--------16-18----------------|-------16p14--16p14---------|------5-8-5--------------|
G|/-14-17----------------------|--------------------14-14b|--5-7-------7-5---7br--|
D|-----------------------------|----------------------------|7---------------7--------|
A|-----------------------------|----------------------------|-------------------------|
E|-----------------------------|----------------------------|-------------------------|

E|----------------------------|----------------------------|----------------------------|
B|----------------------------|----------------------------|----------------------------|
G|-----5---5-7b-0-5---------|-----5---5-7b-0-5---------|----5---5-7b-0-5----------|
D|-5-7---7------------7-0^7b|-5-7---7------------7-0^7b|-5-7---7------------7-0^7b|
A|----------------------------|----------------------------|----------------------------|
E|----------------------------|----------------------------|----------------------------|

E|---------5-5--8--5--5b--|--------------15------15-----15-----15----15----15---15---15-----|
B|------5-------------------|--------15h17---16b---16b----16b----16b---16b---16b--16b--16b|
G|-7b---------------------|/-14-17----------------------------------------------------------|
D|--------------------------|-----------------------------------------------------------------|
A|--------------------------|-----------------------------------------------------------------|
E|--------------------------|-----------------------------------------------------------------|

E|-------------------------|-----------8----8---11b-11b-11b-|-11b-(---)--/---|
B|16-14--16-14-------------|------8-10---10-----------------------|--------------/---|
G|-------------14--14b---|-9-11---------------------------------|------------------|
D|-------------------------|--------------------------------------|------------------|
A|-------------------------|--------------------------------------|------------------|
E|-------------------------|--------------------------------------|------------------|




ESTRIBILLO POS-SOLO:

LAm      LAm/sol
      Apuntamos a tu nariz 
        LAm /fa#* 
      undimos tus pomulos
          LAsus4/FA
      y vos resplandecias
     lA                        SOL
      no te quedo sueño por vengar
                                     Fa
      y ya no esperas que te jueguen limpio 
              corta
      nunca mas




Guitarra:  LAm            Lam/sol        LAm /fa#*           LAsus4/FA

E|---------0------0-|--------0------0-|-------0-----0---|---------0---------0-----||
B|-----------1------|----------1------|---------1-------|------------3------------||
G|------2------2----|-----2------2----|-----2-----2-----|------2--------2---------||
D|----2-------------|---2-------------|---0-------------|----0--------------------||X1
A|--0---------------|-----------------|-----------------|-------------------------||
E|------------------|-3---------------|-2---------------|-1-----------------------||

BAJO:  silencio
G|------------------|-----------------|-----------------|-------------------------||
D|------------------|-----------------|-----------------|-------------------------||X1
A|-------

Fuente original ATAME [www.atame.org]
Colaborador original: GUILLE [elguille665@hotmail.com]

Fuente: tusacordes.com