a b c d e f g h i j k l m n o p q r s t u v w x y z 0-9

Salando Las Heridas

Patricio Rey Y Sus Redonditos De Ricota

			
Intro:
G|--------------|x3 |-------|
D|--------------|   |-----5-|
A|-5-7-8--8-7-5-|   |-5-8---|
E|--------------|   |-------|

Pre-Verso:
G|-------------|x1
D|-5-----------|
A|---8-7-5-7-8-|
E|-------------|

Verso Nº1:
G|-----------|-----------------|x3
D|-----------|-----------------|
A|-55-77-88--|-5-7-8--55-77-88-|
E|-----------|-----------------|

Verso Nº2 un día el bote volcó...:
G|----------------------------------------------|
D|----------------------------------------------|
A|----------------------------------------------|
E|-5x8-3x8-2x8-1x8--5x8-3x8-2x8-1-|

Verso Nº3:
G|------------------|x4
D|------------------|
A|-5-7-8--55-77-88--|
E|------------------|

Verso Nº4 fundiendo plomo lográs...:
G|----------------------------------------------|
D|----------------------------------------------|
A|----------------------------------------------|
E|-5x8-3x8-2x8-1x8--5x8-3x8-2x8-1-|

Pre-Solo de Guitarra:
G|---------------------|x2
D|---------------------|
A|---------------------|
E|-5--3--2--1--|

Solo de Guitarra:
G|-------------------------|x3
D|-------------------------|
A|-------------------------|
E|-5x8-3x8-2x8-1x8-|

 |-----------------------|x1
 |-----------------------|
 |-----------------------|
 |-5x8-3x8-2x8-1---|

Verso Nº5 apuntamos a tu nariz...:
G|---------------------|x1
D|---------------------|
A|---------------------|
E|-5--3--2--1--|

 |---------------------|x1
 |---------------------|
 |---------------------|
 |-5x8-3x8-2x8-1-|

Verso Nº6:
G|------------------|x4
D|------------------|
A|-5-7-8--55-77-88--|
E|------------------|

Verso Nº7 un día el bote volcó...:
G|----------------------------------------------|
D|----------------------------------------------|
A|----------------------------------------------|
E|-5x8-3x8-2x8-1x8--5x8-3x8-2x8-1-|

Verso Nº8:
G|------------------|x4
D|------------------|
A|-5-7-8--55-77-88--|
E|------------------|

Verso Nº9 fundiendo plomo lográs...:
G|----------------------------------------------|
D|----------------------------------------------|
A|----------------------------------------------|
E|-5x8-3x8-2x8-1x8--5x8-3x8-2x8-1-|

Pre-Solo de Guitarra:
G|---------------------|x2
D|---------------------|
A|---------------------|
E|-5--3--2--1--|

Solo de Guitarra:
G|-------------------------|x3
D|-------------------------|
A|-------------------------|
E|-5x8-3x8-2x8-1x8-|

 |-----------------------|x1
 |-----------------------|
 |-----------------------|
 |-5x8-3x8-2x8-1---|

Final apuntamos a tu nariz...:
G|---------------------|x2
D|---------------------|
A|---------------------|
E|-5--3--2--1--|

Escuchá la canción para saber el ritmo

Fuente original ATAME [www.atame.org]
Colaborador original: Sebastián Vidondo [rojoamargodelsiglo@yahoo.com.ar]

Fuente: tusacordes.com