a b c d e f g h i j k l m n o p q r s t u v w x y z 0-9

Roxana Porchelana

Patricio Rey Y Sus Redonditos De Ricota

Am
G
			
 Intro: Am
       Riff x4

Am        G         Am         G 
A Roxana Porchelana, en el panel de video,
Am           G                   Riff x2
la ratoncita divina del Dr. Jeckill,

Am                 G   Am                G 
Siempre jugando con fuego, incendio Palermo Chico,
Am              G                         Riff x2  
horrorizada en bikini en una gran congestión.

G                     Am
Dicen que el crimen no paga,
G               Am
es un empalagoso show,
G                Am 
Esos retazos gratuitos, 
G              Am                     G  Am
que el crimen no paga el hipnótico panel.

Solo de guitarra acompañado con: [Am G]x8

Am                G  Am                  G 
Roxi quedó radioactiva, en un riesgoso interview,
Am                  G                           Riff x2
mientras buscaba inocente, el monstruo la chuponeó.

Am                  G  Am            G 
Mirá que linda y cremosa, su faraónico ser,
Am                G                     Riff x2
no baila ya -pobrecita- el limbo sobrevivir

G                     Am
Dicen que el crimen no paga,
G                Am
es un empalagoso show,
G                Am 
Esos retazos gratuitos,
G                Am 
que el crimen no paga el hipnótico panel.

Final: Riff x2
       Riff final



Riff
    Am        G 
1|--10--8----------------------
2|---------10--8---------------
3|-----------------------------
4|-----------------------------
5|-------------------------3-0-
6|----------------0-0-3-0------

Riff final

1|--10--8--------10--8---------10--8----------------10-----
2|--------10--8---------10--8---------10--8--8--10-----10--
3|---------------------------------------------------------
4|---------------------------------------------------------
5|---------------------------------------------------------
6|--------------------------------------------------------- 

Fuente original ATAME [www.atame.org]
Colaborador original: Julio Carvajal [jacarvajal@fibertel.com.ar]

Fuente: tusacordes.com