a b c d e f g h i j k l m n o p q r s t u v w x y z 0-9

Roto Y Mal Parado

Patricio Rey Y Sus Redonditos De Ricota

			
Intro:                                                            ___________X3____________
Guitarra 1:                                                      |   RIFF 1                |
E|---------------------------------------------|----------------|----------------------------|
B|---------------------------------------------|----------------|----------------------------|
G|---------------------------------------------|--4-4---3-/-4-|--------------4-4---3-/-4-|
D|-14-14-13-13-12-12-11-11-10-10-9-9-8-8-7-7-6-|--3-3---2-/-3-|--------------3-3---2-/-3-|
A|-12-12-11-11-10-10--9--9--8--8-7-7-6-6-5-5-4-|----------------|-------2-3-4----------------|
E|---------------------------------------------|----------------|-0-2-3----------------------|

BAJO:                                                              ___________X3____________
G|---------------------------------------------|----------------|----------------------------|
D|---------------#-----------------------------|-------#--------|------------------#---------|
A|------------------------------------------4|----------------|-------2-3-4----------------|
E|---------------------------------------------|----------------|-0-2-3----------------------|

GUITARRA 2:                                                        ___________X3____________
e|---------------------------------------------|----------------|----------------------------|
B|---------------------------------------------|----------------|-13b--12~-----------------|
G|---------------------------------------------|----------------|----------------------------|
D|---------------#-----------------------------|-------#--------|----------------------------|
A|------------------------------------------4|~---------------|----------------------------|
E|---------------------------------------------|----------------|----------------------------|


Sigue asi:
GUITARRA:   riff 2
E|----------------------------------|
B|----------------------------------|
G|--------------------4-4---3-/-4-| X3
D|--------------------3-3---2-/-3-|
A|----------2---2-4-----------------|
E|-0--2-3-4---4---------------------|

BAJO:
G|----------------------------------| X3
D|----------------------------------|
A|----------2---2-4----4--x--4~-/-|
E|-0--2-3-4---4---------------------|


VERSO 1: Riff 2 X7
Guitarra
E|----------------------------------|
B|----------------------------------|
G|--------------------4-4---3-/-4-| X7
D|--------------------3-3---2-/-3-|
A|----------2---2-4-----------------|
E|-0--2-3-4---4---------------------|

BAJO:
G|----------------------------------| X7
D|----------------------------------|
A|----------2---2-4----4--x--4~-/-|
E|-0--2-3-4---4---------------------|


Quemás tu vida en este día,
en esta tibia, tibia fila.
Quemás, Quemás, Quemás...
Quemás, Quemás, Quemás... tu vida.


PUENTE Riff 2X1

Guitarra
E|----------------------------------|
B|----------------------------------|
G|--------------------4-4---3-/-4-| X1
D|--------------------3-3---2-/-3-|
A|----------2---2-4-----------------|
E|-0--2-3-4---4---------------------|


VERSO 2:Igual riff 2 x7

¿Comó te vá en estos dias?
 Humano roto y mal parado.
 Quemás, Quemás, Quemás... 
 Quemás, Quemás, Quemás... tu vida.

   
PUENTE Riff 2X1

Guitarra
E|----------------------------------|
B|----------------------------------|
G|--------------------4-4---3-/-4-| X1
D|--------------------3-3---2-/-3-|
A|----------2---2-4-----------------|
E|-0--2-3-4---4---------------------|

ESTRIBILLO 1:
Guitarra               _____________X3_____________   SI   SIb  SI
E|--------------------|--------|-------|-----|-----|-------------------|
B|--------------------|-9-x-9--|--7--7-|-7-7-|-5-5-|-------------------|
G|--------------------|-9-x-9--|--8--8-|-7-7-|-6-6-|-4-4---3-/-4-----|
D|--------------------|--------|-------|-----|-----|-3-3---2-/-3-----|
A|-----------2---2-4--|--------|-------|-----|-----|-------------------|
E|-0--2-3-44---4------|--------|-------|-----|-----|-------------------|

BAJO:                  _____________X3___________________  SI  SIb SI
G|--------------------|--------|--------|--------|-------|----------------|
D|--------------------|-----6-9|--------|--------|-------|----------------|
A|-----------2---2-4--|7-7-7---|-----6-9|-----4-7|----4--|-2-2--1-2-----|
E|-0--2-3-44---4------|--------|7-7-7---|5-5-5---|5-5---5|----------------|
                        MI        SI      LA

  MI   SI     LA
 ¡Fuego, fuego!  
   MI   SI     LA
 ¡Fuego, fuego!
   MI   SI     LA    SI SIb SI
 ¡Fuego, fuego! mentiras.


 REPITE PUENTE  X2

GUITARRA:   riff 2
E|----------------------------------|
B|----------------------------------|
G|--------------------4-4---3-/-4-| X2
D|--------------------3-3---2-/-3-|
A|----------2---2-4-----------------|
E|-0--2-3-4---4---------------------|

BAJO:
G|----------------------------------| X2
D|----------------------------------|
A|----------2---2-4----4--x--4~-/-|
E|-0--2-3-4---4---------------------|


VERSO 2: Riff 2 X7   igual

Quemás tu vida en este día,
en esta tibia, tibia fila.
Quemás, Quemás, Quemás...
Quemás, Quemás, Quemás... tu vida.


PUENTE Riff 2X1

Guitarra
E|----------------------------------|
B|----------------------------------|
G|--------------------4-4---3-/-4-| X1
D|--------------------3-3---2-/-3-|
A|----------2---2-4-----------------|
E|-0--2-3-4---4---------------------|


VERSO 3:Igual riff 2 x7

 Tu loca voluntad humeando,
 graznando fiero y sin estilo.
 Quemás, Quemás, Quemás... 
 Quemás, Quemás, Quemás... tu vida.


PUENTE Riff 2X1

Guitarra
E|----------------------------------|
B|----------------------------------|
G|--------------------4-4---3-/-4-| X1
D|--------------------3-3---2-/-3-|
A|----------2---2-4-----------------|
E|-0--2-3-4---4---------------------|


ESTRIBILLO 2: igual

  MI   SI     LA
 ¡Fuego, fuego!  
   MI   SI     LA
 ¡Fuego, fuego!
   MI   SI     LA    SI SIb SI
 ¡Fuego, fuego! mentiras.



PUENTE Riff 2X1

Guitarra
E|----------------------------------|
B|----------------------------------|
G|--------------------4-4---3-/-4-| X1
D|--------------------3-3---2-/-3-|
A|----------2---2-4-----------------|
E|-0--2-3-4---4---------------------|


SOLO DE SAXO:
GUITARRA:
E|--------------------|----------------|--------------|-----------------|-----------------|
B|--------------------|-3--3--3--3-2-3-|-3--3--3--3-2-|-------------2---|-------------2---|
G|--------------------|-4--4--4--4-3-4-|-4--4--4--4-3-|-4--4--4--4--3---|-4--4--4--4--3---|
D|--------------------|-3--3--3--3-2-3-|-3--3--3--3-2-|-5--5--5--5--2---|-5--5--5--5--2---|
A|-----------2---2-4--|----------------|--------------|-4--4--4--4------|-4--4--4--4------|
E|-0--2-3-4----4------|----------------|--------------|-----------------|-----------------|

BAJO:                                                  __________X2____________
G|--------------------|-----------------|-------------|------------------------|
D|--------------------|-----------------|-------------|------------------------|
A|-----------2---2-4--|-5/-5/-5/--5-4-5/|-5/-5/-5/-5-4|-4-4-4-3-4/--3-4--3-4-/-|
E|-0--2-3-4----4------|-----------------|-------------|------------------------|


SOLO DE GUITARRA:

BAJO: __________________________X2___________________________
G|-------------------------|--|---------------------------|--| |-------------------|---------|
D|-------------------------|X2|---------------------------|X2| |-------------------|---------|
A|-555555-4-5~-5-4-5-4-2-|--|-444444-2-4~-4-2-4-2-----|--| |--5/-5/-5/--5-4-5/-|-5/-5/---|
E|-------------------------|--|-----------------------4-|--| |-------------------|---------|

Guitarra solo
                                                                  ___________X2_____________
E|-------------------------|--|------------|-------------|----0|--------------------------|
B|-333333-2-3~-3-2-3-2---|--|------------|-------------|-------|--333333-2-3~-3-2-3-2---|
G|-----------------------4-|X2|--------4~|---4~--6~|-6-----|------------------------4-|
D|-------------------------|--|-6~-6-----|-6------6----|-------|--------------------------|
A|-------------------------|--|------------|-------------|-------|--------------------------|
E|-------------------------|--|------------|-------------|-------|--------------------------|

E|-------------------------|-------------------------|--------------------------------------|
B|-------------------------|-------------------------|-5^6^5^6^5^6^5^6^5^6^5^6^5^6^5^6^5^6^-|
G|-666666-4-6~-6-4-6-4---|-666666-4-6~-6-4-6-4~|--------------------------------------|
D|-----------------------6-|-------------------------|--------------------------------------|
A|-------------------------|-------------------------|--------------------------------------|
E|-------------------------|-------------------------|--------------------------------------|

-----------------|
-6--6p5---6-5~-|
--------7--------|
-----------------|
-----------------|
-----------------|


REPITE PUENTE  X2

GUITARRA:   riff 2
E|----------------------------------|
B|----------------------------------|
G|--------------------4-4---3-/-4-| X2
D|--------------------3-3---2-/-3-|
A|----------2---2-4-----------------|
E|-0--2-3-4---4---------------------|

BAJO:
G|----------------------------------| X2
D|----------------------------------|
A|----------2---2-4----4--x--4~-/-|
E|-0--2-3-4---4---------------------|


ESTRIBILLO FINAL:

  MI   SI     LA
 ¡Fuego, fuego!  
   MI   SI     LA
 ¡Fuego, fuego!
   MI   SI     LA    SI SIb SI
 ¡Fuego, fuego! mentiras.

  mentiras 
                          
  mentiras mentiras     mentirass...


Guitarra               _____________X3_____________   SI   SIb  SI
E|--------------------|--------|-------|-----|-----|---------------|---------------|-------|----|
B|--------------------|-9-x-9--|--7--7-|-7-7-|-5-5-|---------------|---------------|-------|----|
G|--------------------|-9-x-9--|--8--8-|-7-7-|-6-6-|-4-4---3-/-4-|-4-4---3-/-4-|--4--4-|----|
D|--------------------|--------|-------|-----|-----|-3-3---2-/-3-|-3-3---2-/-3-|--3--3-|----|
A|-----------2---2-4--|--------|-------|-----|-----|---------------|---------------|-------|----|
E|-0--2-3-44---4------|--------|-------|-----|-----|---------------|---------------|-------|----|

BAJO:                  _____________X3___________________  SI  SIb SI
G|--------------------|--------|--------|--------|-------|-------------|------------|-------|---|
D|--------------------|-----6-9|--------|--------|-------|-------------|------------|-------|---|
A|-----------2---2-4--|7-7-7---|-----6-9|-----4-7|----4--|-2-2--1-2--|-2-2--1--2--|--2--2-|---|
E|-0--2-3-44---4------|--------|7-7-7---|5-5-5---|5-5---5|-------------|------------|-------|---|

fin..

GUITARRA:   
E|--------------------|
B|--------------------|
G|------4-4---3-/-4-|
D|------3-3---2-/-3-|
A|--------------------|
E|--------------------|

BAJO:
G|--------------------| 
D|--------------------|
A|------2-2-----------|
E|--------------------|

fin.

Fuente original ATAME [www.atame.org]
Colaborador original: Guille [elguille665@hotmail.com]

Fuente: tusacordes.com