a b c d e f g h i j k l m n o p q r s t u v w x y z 0-9

Ropa Sucia

Patricio Rey Y Sus Redonditos De Ricota

			
Intro :
  Se toca 1ª y 2ª guitarras juntas, sino la primera guitarra sola 
es una buena sintesis de las dos y queda muy bien.


1ª Guitarra

e|-----------8-10-101110-8----8-1011--
b|--------10-----------------10-----------
g|----------------------------------------
d|----------------------------------------
a|-7-7-7----------------------------------
e|-5-5-5----------------------------------

e|-----------8-10-101110-8----8-8-------
b|--------10-----------------10-----10----
g|----------------------------------------
d|----------------------------------------
a|-7-7-7----------------------------------
e|-5-5-5----------------------------------

e|-----------8-10-101110-8----8-1011--
b|--------10-----------------10-----------
g|----------------------------------------
d|----------------------------------------
a|-7-7-7----------------------------------
e|-5-5-5----------------------------------

e|----------------------------------------
b|----------------------------------------
g|----------------------------------------
d|----------------------------------------
a|-7-7-7-7--2--2--2--2--2--2--------------
e|-5-5-5-5--0--0--0--0--0--0--------------



2ªGuitarra

e|----------------------------------------
b|----------------------------------------
g|----------------------------------------
d|----------------------------------------
a|-7-7-7-7-7|-7-7--3-3-3-3-3-3-3|---------
e|-5-5-5-5-5|-5-5--1-1-1-1-1-1-1|---------
            |                   |
            |-------------------|
             aca entra la parte 
             del punteo de la 1ª
             guitarra

e|----------------------------------------
b|----------------------------------------
g|----------------------------------------
d|------------------------2---------------
a|-7-7-7-7-7-7-7--3-3-3-3---3-2^3^2^3-----
e|-5-5-5-5-5-5-5--1-1-1-1-----------------


e|----------------------------------------
b|----------------------------------------
g|----------------------------------------
d|----------------------------------------
a|-7-7-7-7-7-7-7--3-3-3-3-3-3-3-----------
e|-5-5-5-5-5-5-5--1-1-1-1-1-1-1-----------


e|----------------------------------------
b|----------------------------------------
g|----------------------------------------
d|----------------------------------------
a|-7-7-7-7--2--2--2--2--2--2--------------
e|-5-5-5-5--0--0--0--0--0--0--------------


Estrofas

Base 
1)

e|-----------5--------------1-------------
b|-----------5--------------1-------------
g|-----------5--------------2-------------
d|-----------7--------------3-------------
a|-7-7-7-7-7---7--3-3-3-3-3---3-----------
e|-5-5-5-5-5---5--1-1-1-1-1---1-----------


e|-----------5----------------------------
b|-----------5----------------------------
g|-----------5----------------------------
d|-----------7------------2---------------
a|-7-7-7-7-7---7--3-3-3-3---3-2^3^2^3-----
e|-5-5-5-5-5---5--1-1-1-1-----------------


e|-----------5--------------1-------------
b|-----------5--------------1-------------
g|-----------5--------------2-------------
d|-----------7--------------3-------------
a|-7-7-7-7-7---7--3-3-3-3-3---3-----------
e|-5-5-5-5-5---5--1-1-1-1-----------------

e|-----------5----------------------------
b|-----------5----------------------------
g|-----------5----------------------------
d|-----------7----------------------------
a|-7-7-7-7-7---7--3-3-3-3---3----2--------
e|-5-5-5-5-5---5--1-1-1-1-----------------


2)
Sol                  Fa      Do
 Vivir sólo cuesta vida
                             Re             Corte 1
 ¡Ahora! ¡Ya mismo! Puedo ajustar un guión de ropa sucia
  Corte 2
 Ropa sucia, ¡fuera! ¡ahora mismo!


Corte 1

e|-5-5-5---8--8--8--|
b|-6-6-6--10-10-10--|
g|-5-5-5--10-10-10--|
d|------------------|
a|------------------|
e|------------------|


Corte 2
                          
e|--------------1--1--1-| |
b|--------------4--4--4-| |
g|-------2------2--2--2-| | 3 veces
d|-2-----0------1--1--1-| |
a|-0-3-0---3-3--3--3--3-| |
e|-----------1--1--1--1-| |
                          /

e|----------------------------
b|----------------------------
g|----------------------------
d|----------------------------
a|-7-7-7-7--2--2--2--2--2--2--
e|-5-5-5-5--0--0--0--0--0--0--



La letra antes de cada estrofa tiene arriba a la izquierda
la base con la que se toca


Letra

1)
¿Dónde usás los dientes, mi amor?
Clavados en el cuello, por hoy...
(mientras bailamos tangos fatales)

1) 
El tango que ocultamos mejor
del que preferimos no hablar
es el que nos tiene anarcotizados.

2) 
Vivir sólo cuesta vida
¡Ahora! ¡Ya mismo! Puedo ajustar un guión de ropa sucia
Ropa sucia, ¡fuera! ¡ahora mismo!

1) 
Andás dando guerra y temblás
gastándote en relámpagos
tu estómago gruñe como enjaulado

2) (toca toda la primer parte sin cantar y canta la parte
    del Corte 2)
Ropa sucia, ¡fuera! ¡ahora mismo!

1)
Tu gracia me da miedo, mi amor
dejo de beber tu licor
que huele a tormenta de viejo estilo
 
1)
¿Dónde usás los dientes, mi amor?
Clavados en el cuello, por hoy...
(mientras bailamos tangos fatales)

2)
Vivir sólo cuesta vida
¡Ahora! ¡Ya mismo! Puedo ajustar un guión de ropa sucia
Ropa sucia, ¡fuera! ¡ahora mismo! 


Final
                                       
e|-----5-5------5-5------1-1----1-1--  | 
b|-----5-5------5-5------1-1----1-1--  |
g|-----5-5------5-5------2-2----2-2--  | 4 veces
d|-7-7------7-7------3-3------3------  |
a|-7-7------7-7------3-3------3------  |
e|-5-5------5-5------1-1------1------  |
                                       /

     La- !

Notas
   Sol   Fa    Do    Re    Fa 7   La-
e|-3-----1-----0-----2-----1------5-----
b|-0-----1-----1-----3-----4------5-----
g|-0-----2-----0-----2-----2------5-----
d|-0-----3-----2-----0-----1------7-----
a|-2-----3-----3-----x-----3------7-----
e|-3-----1-----x-----x-----1------5-----

Notaciones

78 Estirar hasta que sune como la nota que esta
     entre parentesis

87 Tocar la nota con la cuerda estirada y bajarla

^ Bend o ligado

! Tocar el tono todas las veces que aparezca el signo

Cualquier duda, correccion o sugerencia mandala a: Fedematiz@yahoo.com

Fuente original ATAME [www.atame.org]
Colaborador original: Federico Rodriguez Matiz [fedematiz@yahoo.com.ar]

Fuente: tusacordes.com