a b c d e f g h i j k l m n o p q r s t u v w x y z 0-9

Ropa Sucia

Patricio Rey Y Sus Redonditos De Ricota

			
ROPA SUCIA.

INTRO:
GUITARRA 1:
       LA5              FA5            LA5             FA5 + Riff 1                      
e|---------------0-|------------1-1-|------------0-|------------------|---
B|---------------0-|------------1-1-|------------0-|------------------|---
G|-----------------|----------------|--------------|------------------|---
D|--2--2-2--2-2----|-3--3-3--3------|-2--2-2--2-2--|-3--3-3--3--------|---
A|--0--0-0--0-0----|-3--3-3--3------|-0--0-0--0-0--|-3--3-3----3-2^3~-|--
E|-----------------|-1--1-1--1------|--------------|-1--1-1-----------|---
 PM    ........         ......           ........       ...

GUITARRA 2:

e|----------------3|5b-3---3--5b|-------------3|5b-3---3--------|-
B|------------3-5--|-------5--------|---------3-5--|-------5---5------|-
G|-----------------|----------------|--------------|------------------|-
D|-----------------|----------------|--------------|------------------|-
A|-----------------|----------------|--------------|------------------|-
E|-----------------|----------------|--------------|------------------|-

BAJO:
     LA                FA              LA              FA
G|-----------------|----------------|--------------|------------------|-
D|-----------------|----------------|--------------|------------------|-
A|-----------------|----------------|--------------|------------------|-
E|5-5-5-5-5-5-5-5-0|-1-1-1-1-1-1-1-0|5-5-5-5-5-5-5-|01-1-1-1-1-1-1-1-0|-


sigue asi....

GUITARRA 1:

       LA5              FA5            LA5             MI5                      
e|---------------0-|------------1-1-|--------------|--------------------||
B|---------------0-|------------1-1-|--------------|--------------------||
G|-----------------|----------------|--------------|--------------------||
D|--2--2-2--2-2----|-3--3-3--3------|-2b~--2b~--2b~|--------------------||
A|--0--0-0--0-0----|-3--3-3--3------|-0b~--0b~--0b~|-2-2--2-2--2-2--2-2-||
E|-----------------|-1--1-1--1------|--------------|-0-0--0-0--0-0--0-0-||
 PM    ........         ......                 

GUITARRA 2:

e|----------------3|5b-3---3--5b|--------------|--------------------||
B|------------3-5--|-------5--------|--------------|--------------------||
G|-----------------|----------------|-7b---7b---7b-|--------------------||
D|-----------------|----------------|--------------|--------------------||
A|-----------------|----------------|--------------|--------------------||
E|-----------------|----------------|--------------|--------------------||

BAJO:
     LA               FA             LA              MI
G|-----------------|----------------|--------------|--------------------||
D|-----------------|----------------|--------------|--------------------||
A|-----------------|----------------|--------------|--------------------||
E|5-5-5-5-5-5-5-5-0|-1-1-1-1-1-1-1-0|5-----------|-0-0--0-0--0-0--0-0-||


1er VERSO:
---------
LA5              FA5
¿Donde usas los dientes mi amor?
LA5              FA5+ Riff 1
-clavados en el cuello, por hoy...
LA5         FA    LAm      FA5 + Riff 2 
mientras bailamos tangos fatales.


guitarra;
 
 LA5                   FA5            LA5               FA5 + Riff 1                      
e|---------------0-|------------1-1-|------------0-|------------------|---
B|---------------0-|------------1-1-|------------0-|------------------|---
G|-----------------|----------------|--------------|------------------|---
D|--2--2-2--2-2----|-3--3-3--3------|-2--2-2--2-2--|-3--3-3--3--------|---
A|--0--0-0--0-0----|-3--3-3--3------|-0--0-0--0-0--|-3--3-3----3-2^3~-|--
E|-----------------|-1--1-1--1------|--------------|-1--1-1-----------|---
 PM    ........         ......           ........       ...

BAJO:
     LA                FA              LA              FA
G|-----------------|----------------|--------------|------------------|-
D|-----------------|----------------|--------------|------------------|-
A|-----------------|----------------|--------------|------------------|-
E|5-5-5-5-5-5-5-5-0|-1-1-1-1-1-1-1-0|5-5-5-5-5-5-5-|01-1-1-1-1-1-1-1-0|-


sigue...
                                                        aca cambia 
 LA5                 FA5              LA5               FA5 + Riff 2                      
e|---------------0-|------------1-1-|------------0-|-----------------|-
B|---------------0-|------------1-1-|------------0-|-----------------|-
G|-----------------|----------------|--------------|-----------------|-
D|--2--2-2--2-2----|-3--3-3--3------|-2--2-2--2-2--|-3--3-3----------|-
A|--0--0-0--0-0----|-3--3-3--3------|-0--0-0--0-0--|-3--3-3---3-2^3--|-
E|-----------------|-1--1-1--1------|--------------|-1--1-1----------|-
 PM    ........         ......           ........       ...

BAJO:   LA                FA              LA              FA
G|-----------------|----------------|--------------|------------------|-
D|-----------------|----------------|--------------|------------------|-
A|-----------------|----------------|--------------|----------3-2-----|-
E|5-5-5-5-5-5-5-5-0|-1-1-1-1-1-1-1-0|5-5-5-5-5-5-5-|0-1-1-1-----------|-



SIGUE EL VERSO:  

LA              FA
El tango que ocultamos mejor
LA         FA+ riff 1
Del que preferimos no hablar
LA            FA    LA       FA*
es el que nos tiene    anarcotizados.


HACE TODO DE VUELTA ;  menos el ultimo FA que la hace asi

   FA5                                                
e|------------1-1-|
B|------------1-1-|
G|----------------|
D|-3--3-3--3------|
A|-3--3-3--3------|
E|-1--1-1--1------|
PM    ......          



PRE_ESTRIBILLO: la guitarra  simplemente, toca estas las notas

SOL5                FA5
Vivir, solo cuesta vida
DO5                        RE5         FA5dejar sonar 
ahora! ya mismo! puedo ajustar un guión       de ropa sucia

bajO:  tonicas
    sol        sol        fa       fa        do         do         re
G|----------|----------|--------|---------|----------|----------|-----------|-------|
D|----------|----------|--------|---------|----------|----------|-----------|-------|
A|----------|----------|--------|---------|-3-3-3-3-3|3-3-3-3-3-|-5-5-5-5-5-|/--8-|
E|-3-3-3-3-3|3-3-3-3-3-|-1-1-1-1|1-1-1-1-1|----------|----------|-----------|-------|.
 

ESTRIBILLO:

    FA          la               fa
  "Ropa sucia fuera!            ahora mismo!"       
    FA            LA palanca
   "Ropa sucia fuera!                                         

guitarra             
    la     do   re    do       FA                      LA palanca     MI5  
e|-------------------------|----------------1-1-||--||--5~-5~-5~-5~-|--------------------|
B|-------------------------|----------------1-1-||--||--5~-5~-5~-5~-|--------------------|
G|-------------------------|--------------------||X3||--------------|--------------------|
D|--7--7---5----7-----5----|--3----3-3-3-3------||--||--------------|--------------------|
A|--7--7---3----5-----3----|--3----3-3-3-3------||--||--------------|-2-2--2-2--2-2--2-2-|
E|--5--5------5----------5-|--1----1-1-1-1------||--||--------------|-0-0--0-0--0-0--0-0-|
                                PM .......

BAJO: la   do   re    do       FA                      LA              MI
G|-------------------------|--------------------||--||--------------|--------------------|
D|-------------------------|--------------------||X3||--------------|--------------------|
A|---------3----5-----3----|--------------------||--||--------------|--------------------|
E|--5--5------5----------5-|--1----1-1-1-1--1-1-||--||-5----------|-0-0--0-0--0-0--0-0-|


2do VERSO: GUITARRA Y BAJO igual que en el primero
---------
 LAm          FA
Andas dando guerra y temblas
LAm            FA
gastándote en relámpagos
LAm           FA    LAm      FA
tu estómago gruñe como enjaulado


SOLO DE SAXO o PRE_ESTRIBILLO: mismas notas
------------------------------

"Ahora mismo.....


REPITE ESTRIBILLO:
-----------------
 FA          la               fa
  "Ropa sucia fuera!            ahora mismo!"       
    FA            LA palanca
   "Ropa sucia fuera!                                         



3Er VERSO: GUITARRA Y BAJO igual 
---------

 LAm              FA
Tu gracia me da miedo, mi amor
LAm      FA
dejo de beber tu licor
LAm           FA      LAm       FA
que huele a tormenta de viejo estilo

LA5              FA5
¿Donde usas los dientes mi amor?
LA5              FA5+ Riff 1
-clavados en el cuello, por hoy...
LA5         FA    LAm      FA5  
mientras bailamos tangos fatales.



PRE_ESTRIBILLO: mismas notas
------------------------------

SOL5                FA5
Vivir, solo cuesta vida
DO5                        RE5         FA5dejar sonar 
ahora! ya mismo! puedo ajustar un guión       de ropa sucia



REPITE ESTRIBILLO:
-----------------

              FA
PUENTE:     "ropa sucia fuera...   ahora mismo ...       ropa sucia fueraaaaaa

GUITARRA:
  LA               FA
e|-----5-5--||--||-------1-1-||--||----------------|
B|-----5-5--||--||-------1-1-||--||---REPETIR ESTO-|
G|----------||X2||-----------||X2||----------------|
D|----------||--||-----------||--||-----X3---------|
A|----------||--||-----------||--||----------------|
E|-5-x------||--||--1-x------||--||----------------|

BAJO;
  LA               FA
e|----------||--||-----------||--||----------------|
B|----------||--||-----------||--||---REPETIR ESTO-|
G|----------||X2||-----------||X2||----------------|
D|-5-5------||--||--1-1------||--||-----X3---------|



REPETIR EL ESTRIBILLO:::

Pero cambia en el final.:

guitarra             
    la     do   re    do       FA                      
e|-------------------------|----------------1-1-||--||---------------------|
B|-------------------------|----------------1-1-||--||---------------------|
G|-------------------------|--------------------||X3||---------------------|
D|--7--7---5----7-----5----|--3----3-3-3-3------||--||---------------------|
A|--7--7---3----5-----3----|--3----3-3-3-3------||--||-7-3-2-3-7-|
E|--5--5------5----------5-|--1----1-1-1-1------||--||-5-1-0-1-5-|
                                PM .......

BAJO: la   do   re    do       FA                                   
G|-------------------------|--------------------||--||---------------------|
D|-------------------------|--------------------||X3||---------------------|
A|---------3----5-----3----|--------------------||--||---------------------|
E|--5--5------5----------5-|--1----1-1-1-1--1-1-||--||-5-1-0-1-5-|


fin.

Fuente original ATAME [www.atame.org]
Colaborador original: GUILLE [elguille665@hotmail.com]

Fuente: tusacordes.com