a b c d e f g h i j k l m n o p q r s t u v w x y z 0-9

Ropa Sucia

Patricio Rey Y Sus Redonditos De Ricota

			
Intro
G|------------------|x3 |-----|-----------|
D|------------------|   |-----|-----------|
A|------------------|   |-----|-----------|
E|-5-55555-1-1111-0-|   |-5-|-55-555555-|

Verso
G|------------------|x8
D|------------------|
A|------------------|
E|-5-55555-1-1111-0-|

Coro
G|--------|---------------------------------|-----------------|
D|--------|---------------------------------|-----------------|
A|--------|-----0---3-0-1-3-----0---3-0-1-3-|-3x16-5x16---|
E|-3x16-|-111---1---------111---1---------|---------------1-|

 |-----------------------|x3 |-----|-----------|
 |-----------------------|   |-----|-----------|
 |----4---7-5-4----------|   |-----|-----------|
 |-55---5-------1-111111-|   |-5-|-55-555555-|

Verso
G|------------------|x4
D|------------------|
A|------------------|
E|-5-55555-1-1111-0-|

Solo de Saxo
G|--------|---------------------------------|-----------------|
D|--------|---------------------------------|-----------------|
A|--------|-----0---3-0-1-3-----0---3-0-1-3-|-3x16-5x16---|
E|-3x16-|-111---1---------111---1---------|---------------1-|

 |-----------------------|x3 |-----|-----------|
 |-----------------------|   |-----|-----------|
 |----4---7-5-4----------|   |-----|-----------|
 |-55---5-------1-111111-|   |-5-|-55-555555-|

Verso
G|------------------|x8
D|------------------|
A|------------------|
E|-5-55555-1-1111-0-|

Coro
G|--------|---------------------------------|-----------------|
D|--------|---------------------------------|-----------------|
A|--------|-----0---3-0-1-3-----0---3-0-1-3-|-3x16-5x16---|
E|-3x16-|-111---1---------111---1---------|---------------1-|

 |-----------------------|x3 |-----|-----------|
 |-----------------------|   |-----|-----------|
 |----4---7-5-4----------|   |-----|-----------|
 |-55---5-------1-111111-|   |-5-|-55-555555-|

Puente
G|------------------|x4
D|------------------|
A|------------------|
E|-555-555--111-111-|

Final Solo de Saxo
G|----------------------|x3
D|----------------------|
A|---4--7-5-4-----------|
E|-55--5-------1-111111-|

 |-------------------------|
 |-------------------------|
 |-------------------------|
 |-5--1--0--1--5-|

Escuchá la canción para saber el ritmo

Fuente original ATAME [www.atame.org]
Colaborador original: Sebastián Vidondo [rojoamargodelsiglo@yahoo.com.ar]

Fuente: tusacordes.com