a b c d e f g h i j k l m n o p q r s t u v w x y z 0-9

Rock Para Los Dientes

Patricio Rey Y Sus Redonditos De Ricota

			
Rock PARA los DIENTES...

INTRO:

Guitarra:
                  SI                       LA rasgueo  SOl rasgueo
e|---------7-7----------7-7-----------7-7-|----5------|--3----------||
B|---------7-7----------7-7-----------7-7-|----5------|--3----------||
G|----------------------------------------|----6------|--4----------|| X4
D|----------------------------------------|----7------|--5----------||
A|----------------------------------------|----7------|--5----------||
E|-5^7--7-------5^7--7---------5^7--7-----|----5------|--3----------||

BAJO             SI                         LA            SOL
G|----------------------------------------|-----------|-------------||
D|----------------------------------------|-----------|-------------|| X4
A|----------------------------------------|-----------|-------------||
E|-5^7--7--7-7--5^7--7--7-7----5^7--7-7-7-|--5------|--3--------||

punteo.

guitarrA y SAXO..

e|10-10-7-7------------------------------------------|10-10-7-7---------------------------------|
B|---------10-10-7-7---------------------------99-7|---------10-10-7-7----------------7-9-77|
G|------------------9-9-7-7--------77--7-9-7---99-7|------------------9-9-7-7-------77--------|
D|-------------------------9-9-7-9----------9--------|-------------------------9-9-7-9----------|
A|---------------------------------------------------|------------------------------------------|
E|---------------------------------------------------|------------------------------------------|

REPETIR OTRA VEZ EL PUNTEO...

BAJO DURANTE EL PUENTEO:
            SI                                LA            SOL
G|----------------------------------------|-----------|-------------||
D|----------------------------------------|-----------|-------------|| X4
A|----------------------------------------|-----------|-------------||
E|-5^7--7--7-7--5^7--7--7-7----5^7--7-7-7-|--5------|--3--------||


1er VERSO: igual que la intro
----------
[SI - LA - SOL]

Bm                              A        G
Este mundo, esta empresa, este mundo de hoy
Bm                            A     G
que te esnifa la cabeza una y otra vez
Bm                                A     G
Es una línea y otra línea y otra línea más
Bm                               A     G
Voy cumpliendo como puedo, yo trabajo acá!



ESTRIBILLLO:
------------
Em
  Y te esnifo la cabeza
Bm
  Cada día más, cada día más.
Em
  Y me esnifan la cabeza
F#
  y nada ni nadie lo puede, lo puede parar


guitarra:                SI

e|----------------|-----7-7-----7-7-----7-7--|-------------------|-----------------------------||
B|----------------|-----7-7-----7-7-----7-7--|-------------------|-----------------------------||
G|-----MIm--------|--------------------------|--------MIm--------|----------FA#----------------||
D|----------------|--------------------------|-------------------|-----------------------------||
A|----------------|--------------------------|-------------------|-----------------------------||
E|----------------|---7-------7-------7------|-------------------|-----------------------------||

BAJO:    mi            SI                              mi                   FA#
G|----------------|--------------------------|-------------------|-----------------------------||
D|----------------|--------------------------|-------------------|-----------------------------||
A|7777777777---777|--------------------------|-7777777777---77777|-------------------9-8-7-6-0-||
E|-----------0----|5^7-777-5^7-777-5^7--777--|------------0------|-2222222222222222-----------0||



REPETIR EL PUNTEO de intro  X1

 2do VERSO:

-----------
Vos creés ser el más fiero, el más prontuariado aquí.
El animador del juego el condimentador.
Estás buscando un pequeño infierno para vos
donde soportar el fuego de mi ataque de hoy.


ESTRIBILLO:
-----------
Em
  Y te esnifo la cabeza
Bm
  Cada día más, cada día más.
Em
  Y me esnifan la cabeza
F#
  y nada ni nadie lo puede, lo puede parar.



SOLO DE SAXO:  LO MISMO QUE en los VERSOS
--------------
[SI- LA -SOL] X4


SOLO DE GUITARRA:
-----------------
guitarra: Distorcion
      la        la           SI                           SOL                  FA#
e|-----------|------------|-------12b----7-7-7-7-10b|--------------------|--------------------|
B|-----------|--7^6-------|-------12b----7-7-7-7-10b|8----------8--------|-6-3---6-3---6-3----|
G|-----------|-------7/-9-|-9b----------------------|--7-4-50---7-4-5|-----4-----4----4-|
D|-----------|------------|---------------------------|--------------------|--------------------|
A|-{7}--{7}--|------------|---------------------------|--------------------|--------------------|
E|-{5}--{5}--|------------|---------------------------|--------------------|--------------------|
 con palanca

BAJO
        la        la           SI                           SOL                  FA#
G|-----------|------------|---------------------------|--------------------|--------------------|
D|-----------|------------|---------------------------|--------------------|--------------------|
A|-----------|------------|-2222222222222222222222222-|--------------------|--------------------|
E|-5555555555|55555555555-|---------------------------|-333333333333333333-|-222222222222222222-|


3er VERSO:
----------
Sos un tipo pan comido, no es tu culpa, no.
Zambullido en el caldero es la fatalidad.
Es endemoniadamente caro lo que sos.
Este clip me pone tieso, yo me bajo acá!


REPITE ESTRIBILLO:
------------------

Em
  Y te esnifo la cabeza
Bm
  Cada día más, cada día más.
Em
  Y me esnifan la cabeza
F#
  y nada ni nadie lo puede, lo puede parar.



SOLO DE SAXO Y FINAL:
--------------------

bajo y guitarra [SOL _ RE_ FA# _ ]

guitarra:
e|---------------|------------|-----------|-10-7--------------------|--------|-----|----------|-
B|---------------|------------|-----------|------10-7---------------|--------|-----|----------|-
G|---------------|------------|-----------|-----------9-7-----------|-SOL5---|-----|---LA5----|-
D|----SOL5-------|----RE5-----|---FA#5----|---------------9-7-------|--------|-----|----------|-
A|---------------|------------|-----------|-------------------7^9-9-|--------|-----|----------|-
E|---------------|------------|-----------|-------------------------|--------|-3-4-|----------|-

BAJO:  SOL            RE           FA#                                 SOL            LA
G|---------------|------------|-----------|-------------------------|--------|-----|----------|-
D|---------------|------------|-----------|-------------------------|--------|-----|----------|-
A|---------------|-5555555555-|-----------|-silencio----------------|---2-2-5|-----|----4-4-7-|-
E|-333333333333--|------------|-222222222.|-------------------------|3-3-----|-3-4-|-5-5------|-


final:

guitarra
                 si
e|-----------------|
b|-----------------|
G|-----------------|
D|-----------------|
A|-----------------|
E|--5-^-6--7-----|

BAJO:  SI
G|-----------------|
D|-----------------|
A|-----------------|
E|--5---6--7-----|

Fuente original ATAME [www.atame.org]
Colaborador original: GUILLE [elguille665@hotmail.com]

Fuente: tusacordes.com