a b c d e f g h i j k l m n o p q r s t u v w x y z 0-9

Rock Para El Negro Atila

Patricio Rey Y Sus Redonditos De Ricota

			
Intro:

guitarra:
            MI                                   MI
e|---------------------------------------|------------------------------|
B|---------------------------------------|------------------------------|
G|---------------------------------------|------------------------------|X4
D|-----------------------------9--7--9-9-|----------------------7--9-9--|
A|---2-------------------------7--5--7-7-|----------------------5--7-7--|
E|---0--0-0-0-0-0-0-0-0--0-0---0-----0-0-|-0-0-0-0-0-0-0-0--0-0----0-0--|
        PM.............  ...               ...............  ...

BAJO        MI                                   MI
G|---------------------------------------|------------------------------|
D|---------------------------------------|------------------------------|
A|-----------------------------7--5--7-7-|----------------------5--7-7--|x4
E|---0--0-0-0-0-0-0-0-0--0-0-------------|-0-0-0-0-0-0-0-0--0-0---------|

sigue asi...

guitarra:   mi                 LA                          MI con punteo
e|-----------------------|----------------------------|-------------------------------|-------
B|-----------------------|----------------------------|-------------------------------|-------
G|-----------------------|----------------------------|-------------------------------|-------
D|--------------9-9-9-9|----------------------------|-9------7-6--------7-6---7-6---|-------
A|--------------7-7-7-7|------5-4-------5-4---5-4---|-7--7-7-----7-7777-----7-----7-|-------
E|-0-0-0-0-0-0--0-0-0-0|--5-5-----5-5555----5-----5-|-------------------------------|-------
PM. ..........              ....    ......                 ...       ....
     LA armonizado                            MI                          RE         RIFF
e|-----------------------------|----------------------------------|----------------|----5-5b/-|
B|-----------------------------|----------------------------------|----8-7-5-------|5-7---------|
G|--------7-6-----7-6----7-6---|-9------------------------------|-----------7~~|------------|
D|------------7~------7------7-|-9--9-9-9-9-9-9-9-9-9-9-9--9--0-|-7------7-----|------------|
A|-7---------------------------|-7--7-7-7-7-7-7-7-7-7-7-7--7--0-|-5------------|------------|
E|-5- 5-5----------------------|-----------------------------0--0-|----------------|------------|
      ...                             .....................

BAJO:     MI                 LA                             MI          
G|-----------------------|----------------------------|-------------------------------|-------
D|-----------------------|----------------------------|-------------------------------|-------
A|-----------------------|------5-4-------5-4---5-4---|-7--7-7-7-7-7-7-7-7-7-7-7-7-0--|-------
E|-0-0-0-0-0-0--0-0-0-0|5-5-----5-------5-----5-|-------------------------------|-------
    LA                              MI                                     RE
G|-----------------------------|----------------------------------|----------------|------------|
D|-----------------------------|----------------------------------|---7-5-4--------|------------|
A|-------5-4-------5-4---5-4---|--7--7-7-7-7-7-7-7-7-7-7-7-7--0---|5--------5--|5--3-2-0----|
E|-5-5-----5-------5-----5-|----------------------------------|---------5------|---------3|



VERSO 1: (Igual que INTRO pero cambia el RE (solamente en guitarra) y el final(puente))

en RE la guitarra hace esto. 

|-----------------------------|
|-----------------------------|
|-7--7x--7x--7x---7-7-------|
|-7--7x--7x--7x---7-7-------|
|-5--5x--5x--5x---5-5-------|
|-----------------------------|

  LA                          MI con punteo         
Quiero verte huir como un ladrón
LA armonizado          MI
Al que nunca pueden atrapar
RE                        RE
  Y apretar en tu bolsillo
RE                              PUENTE. tocar lo siguiente:
  Todo el metálico brillo sin temor.

PUENTE del Verso:

BAJO:
      LA                                MI                                  
G|-----------------------------|-------------------------------|
D|-----------------------------|-------------------------------|
A|-------5-4-----5--5--4-------|--7--7-7-7-7-7-7-7-7-7-7-7-7---|
E|-5-5-----5------------5--|-------------------------------|

 guitarra:     LA  re re   la               MI                                  
G|-----------------------------|-------------------------------|
D|-----------------------------|-------------------------------|
G|-----------------------------|-------------------------------|
D|------14x------14x-14x-0-----|--9--9-9-9-9-9-9-9-9-9-9-9-9---|
G|-14x--12x--14x-12x-12x-0-14-/|--7--7-7-7-7-7-7-7-7-7-7-7-7---|
D|-12x-------12x-----------12-/|-------------------------------|
                                     PM.....................
  
engancha el verso2 

VERSO 2: igual al primero

Quiero verte oler como el ratón
El peligro del gato matón
Que ha cambiado la sirena
Y compró matraca nueva de ocasión.


SOLO DE SAXO 1:

guitarra: [LA5-RE5-SI5-MI5-MI5tr7-LA5-MI5]  [RE5-LA5-MI5] [RE5-LA5-y punteo]

BAJO:    LA            RE           SI            MI          MItr7         LA        MI 
G|--------------|--------------|-------------|-------------------------|-----------|------------|
D|--------------|--------------|-------------|-------------------------|-----------|------------|
A|--------------|-5-5-5-5-5-5-5|-------------|-------------7--7-7-7-7--|-----------|------------|
E|-5-5-5-5-5-5-5|--------------|7-7-7-7-7-5-7|-0-0-0-0-0-0------------0|0-55555555-|00000000000-|
     RE              LA            MI                     RE        LA
G|--------------|--------------|----------------------|----------|-----------|
D|--------------|--------------|----------------------|----------|-----------|
A|-5-5-5-5-5-5-5|--------------|----------------------|555555555-|-----------|
E|--------------|-5-5-5-5-5-5-5|-0-000000000000000000-|----------|-555555555-|


PUNTEO DE GUITARRA

guitarra:
e|------------------------------|----------------------------|
B|------------------------------|----------------------------|
G|------------------------------|----------------------------|
D|------------------------------|----------------6-----------| X2
A|--7--5--7---7--5--7---7-5-7-|----7-5-7---7-5---7~~-----|
E|------------------------------|----------------------------|
                  
BAJO:
e|------------------------------|----------------------------|
B|------------------------------|----------------------------|x2
G|------------------------------|7-7----------------------7-7|
D|--0-------------------------|----0---------------------|


VERSO 3 igual que los otros

 LA                          MI con punteo      
Quiero verte hundido en tu gabán,
LA armonizado          MI
Masticando el frío marginal.
RE                        RE
Y además de todo verte
RE                              PUENTE. 
Lunático, blanco y presa de mi amor.


VERSO 4 igual que los otros

 LA                          MI con punteo         
Quiero verte huir como un ladrón
LA armonizado          MI
Al que nunca pueden atrapar
RE                        RE
  Y apretar en tu bolsillo
RE                              PUENTE. 
  Todo el metálico brillo sin temor.


2do SOLO DE SAXO:


guitarra:  [LA5-RE5-SI5-MI5-MI5tr7-LA5-MI5]x2 
  y 
BAJO..    [RE5-LA5-MI5]  [RE5-LA5-]  [MI5 dejar sonando la nota] 

           [RE5-MIm] y en el final hacer:


   la re la re       LA5
E|-------------|--|-------------------|
B|-------------|--|-------------------|
G|-------------|x2|-------------------|
D|-----7-----7-|--|-7---7---7-7-|
A|--7--5--7--5-|--|-7---7---7-7-|
E|--5-----5----|--|-5---5---5-5-|

BAJO:  re la re       LA
G|-------------|--|-------------------|
D|-------------|--|-------------------|
A|-----5-----5-|x2|-------------------|
E|--5-----5----|--|-5---5---5-5-|

fin.

Fuente original ATAME [www.atame.org]
Colaborador original: GUILLE [elguille665@hotmail.com]

Fuente: tusacordes.com