a b c d e f g h i j k l m n o p q r s t u v w x y z 0-9

Rato Molhado

Patricio Rey Y Sus Redonditos De Ricota

			
INtro:
GUITARRA: arreglo                 ________X4________
e|-----------|------------------|--|------------------|
B|-----------|------------------|--|------------------|
G|----#------|------------------|X2|------------------|
D|-----------|--7---------------|--|-7----------------|
A|-----------|------5-7-----5-|--|------5-7-----5-|
E|-----------|----8------8------|--|----8------8------|

GUITARRA 2:                          _____X4_______
e|-----------|------------------|--|-5----------------|
B|-----------|------------------|--|---1--3-5--1--3-|
G|----#------|-------#----------|X2|------------------|
D|-----------|------------------|--|------------------|
A|-----------|------------------|--|------------------|
E|-----------|------------------|--|------------------|


VERSO 1:

GUITARRA 2:                         
e||-5----------------|
B||---1--3-5--1--3-|
G||------------------|X4
D||------------------|
A||------------------|
E||------------------|

GUITARRA 1: [RE]

Tumberito jamon y porron
mira vos que tan lejos llego
va por un golpe mas de borbon
y a la plaza Irlanda a guapear


ESTRIBILLO 1:
    sim          sib      SI
e|-------------|--------|---------|
B|-------3-----|--------|---------|
G|-----4---4---|-----3--|------4--|X2
D|---4-------4-|---3----|----4----|
A|-2-----------|-1------|--2------|
E|-------------|--------|---------|

siM          sib5   Si
roseado con kenzo yangler
sIM          sib5  SI
moldeado por internova

VERSO 2: igual

desayuno en la cama con dios
para el chino chipero que es 
juega siempre a que mata de amor
gargantilla de sangre velos


ESTRIBILLO 2: igual

siM          sib5   Si
su cara es tan expresiva
siM          sib5   Si 
como el par de sus botas nuevas

PUENTE:
GUITARRA: arreglo                
e|--------------------|--|
B|--------------------|--|
G|--------------------|X1|
D|----7---------------|--|
A|--------5-7-----5-|--|
E|------8------8------|--|


INTERMEDIO:

GUITARRA: [FA-MI]X3   [Sol- RE]

FA             MI
con sus curdas de goliat
FA             MI
y sus poros brotando hormonas
FA             MI  
con bebas impalas que
SOL                     RE
lo acarician... Es feliz

SOLO DE GUITARRA:

e|--------------|-----------------|-----------------------------|---------------------------|
B|--------------|-----------------|-----------------------------|-/-5--5-5-5----------------|
G|--------------|-----------------|-----5-7-------------------|-/-5--5-5-5--4h5p4---------|
D|----4-7--5h7--|-9--9p7-----7--|---7-------7--5-7--5-------|-------------------7-5-7---|
A|--5-----------|--------10-------|-5---------------------7-5-|---------------------------|
E|--------------|-----------------|-----------------------------|---------------------------|

e|-------------------------------|
B|-----7-8--8p7------------------|
G|-7-9-----------9-----9----7--|
D|-----------------10----10------|
A|-------------------------------|
E|-------------------------------|

ESTRIBILLO 3: igual

siM          sib5   Si
Los tiros no duelen mucho
siM          sib5   Si
el sabe que solo arden



VERSO 3 igual
RE
meta conga risa y cascabel
con la manga seca su nariz


INTERMEDIO:igual

FA             MI
mandinga lo pone asi
FA             MI
siniestro pero gentil
FA             MI
una sombra chinesca que
SOL                            RE
le encandila a su muerte y se va


FINAL:   BAJO y GUITARRA [RE]

GUITARRA 2

e|--------------------|----|
B|--------------------|----|
G|--------------------|X16-| y despues
D|----7---------------|----|
A|--------5-7-----5-|----|
E|------8------8------|----|

                                                        
e|---------------------------------|--------------------------------------------
B|-/-8~---/7~------------------|--/-8~-8p7--------------------------------
G|----------------5-7~--7------|-------------7------------------------------
D|---------------------------7~--|---------------7~-------------------------
A|---------------------------------|--------------------------------------------
E|---------------------------------|--------------------------------------------
 me falta : pero esto va a servir como para enganchar e inprovizar un poco sobre [RE]

fin.

Fuente original ATAME [www.atame.org]
Colaborador original: Guille [elguille665@hotmail.com]

Fuente: tusacordes.com