a b c d e f g h i j k l m n o p q r s t u v w x y z 0-9

Queso Ruso

Patricio Rey Y Sus Redonditos De Ricota

			
intro

guitarra:   SI5             SOl5         LA5    |.Si5.....X3......|   SOL5    LA5    |....X4...|
E|---------------------|-------------|---------||-----------------||------|---------||---------||
B|---------------------|-------------|---------||-----------------||------|---------||---------||
G|---------------------|-------------|---------||-----------------||------|---------||---------||
D|------9--------9-----|------5------|-----7---||----9--------9---||---5--|----7----||-----9---||
A|----9---9----9---9---|----5---5----|---7---7-||--9---9----9---9-||-5--5-|--7---7--||---9---9-||
E|--7--------7-------/-|--3--------/-|-5-------||7--------7-------||3----/|-5------/||-7-------||

guitarra 2
                                               aca hace este riff                   y aca
E|---------------------------------------------||-5--------7b~--||----------------||5-----7||
B|---------------------------------------------||----7--6--7b~--||--dejar-sonar---||--7-6-7||
G|---------------------------------------------||-----------------||----------------||---------||
D|---------------------------------------------||-----------------||----------------||---------||
A|---------------------------------------------||-----------------||----------------||---------||
E|---------------------------------------------||-----------------||----------------||---------||

BAJO:        SI5             SOl5         LA5   |.Si5.....X3......|   SOL5    LA5    |....X4...|
G|---------------------|-------------|---------||-----------------||-------|--------||---------||
D|---------------------|-------------|---------||-----------------||-------|--------||---------||
A|---------------------|-------------|---------||-----------------||-------|--------||---------||
E|-7-----------------|-3---------|-5-----||-7-------------||-3---|-5----||-7-----||


PRE-VERSO:

guitarra:
   Si    Do#              Si    Do#              Si    Do#              Si    Do#
E|-----------|----------|-----------|----------|-----------|----------|-----------|
B|-----------|----------|-----------|----------|-----------|----------|-----------|
G|-----------|----------|-----------|----------|-----------|----------|-----------| silencio
D|--4--/--6--|----------|--4--/--6--|----------|--4--/--6--|----------|--4--/--6--|
A|--2--/--4--|----------|--2--/--4--|----------|--2--/--4--|----------|--2--/--4--|
E|-----------|----------|-----------|----------|-----------|----------|-----------|

BAJO:Si   Do#              Si    Do#              Si    Do#              Si    Do#
G|-----------|----------|-----------|----------|-----------|----------|-----------|
D|-----------|----------|-----------|----------|-----------|----------|-----------| silencio
A|--2-----4-4|-2-1-2-1|--2-----4-4|-0-1-2-1--|--2-----4-4|-2-1-2-1--|--2----4-|
E|-----------|----------|-----------|----------|-----------|----------|-----------|



VERSO 1:

SI -Do#m                   SI-Do#m 
Paso de moda el golfo como todo ¿viste vos? 
   SI-Do#m                     SI-Do#m 
Como tanta otra tristeza a la que te acostumbras 
LA-SI                       LA- SI   
Ahora vas comprando perlas truchas sin chistar 
   Si-Do#m               Si-Do#m
"Calles inteligentes" alemanas para armar. 
 


guitarra:
   Si    Do#              Si    Do#              Si    Do#              Si    Do#
E|-----------|----------|-----------|----------|-----------|----------|-----------|
B|-----------|----------|-----------|----------|-----------|----------|-----------|
G|-----------|----------|-----------|----------|-----------|----------|-----------| silencio
D|--4--/--6--|---

Fuente original ATAME [www.atame.org]
Colaborador original: GUILLE [elguille665@hotmail.com]

Fuente: tusacordes.com