a b c d e f g h i j k l m n o p q r s t u v w x y z 0-9

Queso Ruso

Patricio Rey Y Sus Redonditos De Ricota

			
Intro
G|------------------|x2
D|------------------|
A|-2-----0-2--|
E|-----3----------|

Pre-Verso
G|----------------|x3 |-----|x1
D|----------1-2-3-|   |-----|
A|-2-4-2--4-------|   |-2-4-|
E|----------------|   |-----|

Verso
G|-----|x8 |-----|x2 |-----|x2
D|-----|   |-----|   |-----|
A|-2-4-|   |-0-2-|   |-2-4-|
E|-----|   |-----|   |-----|

Coro
G|---------------------------|x2
D|---------------------------|
A|-2x8--------0x4-2x16-|
E|--------3x4--------------|

Verso
G|-----|x8 |-----|x2 |-----|x2
D|-----|   |-----|   |-----|
A|-2-4-|   |-0-2-|   |-2-4-|
E|-----|   |-----|   |-----|

Coro
G|---------------------------|x2
D|---------------------------|
A|-2x8--------0x4-2x16-|
E|--------3x4--------------|

Solo de Guitarra x2
G|----------------|x3 |--------------------|x1
D|----------1-2-3-|   |--------------------|
A|-2-4-2--4-------|   |-2-4-2--44-33-22-11-|
E|----------------|   |--------------------|

Solo de Saxo
G|------------------|x2
D|-------------1-2--|
A|-2x16--2-4------|
E|------------------|

Pre-Verso
G|----------------|x3 |-----|x1
D|----------1-2-3-|   |-----|
A|-2-4-2--4-------|   |-2-4-|
E|----------------|   |-----|

Verso
G|-----|x8 |-----|x2 |-----|x2
D|-----|   |-----|   |-----|
A|-2-4-|   |-0-2-|   |-2-4-|
E|-----|   |-----|   |-----|

Coro
G|---------------------------|x2
D|---------------------------|
A|-2x8--------0x4-2x16-|
E|--------3x4--------------|

2º Solo de Saxo
G|-------|x6 |----------------|x1
D|-------|   |----------------|
A|-2-2-4-|   |-2x8-4x8-2--|
E|-------|   |----------------|

2º Solo de Guitarra
G|-------|x10
D|-------|
A|---2---|
E|-------|

Verso
G|-----|x8 |-----|x2 |-----|x2
D|-----|   |-----|   |-----|
A|-2-4-|   |-0-2-|   |-2-4-|
E|-----|   |-----|   |-----|

Coro hasta el final
G|---------------------------|
D|---------------------------|
A|-2x8--------0x4-2x16-|
E|--------3x4--------------|

Escucha la canción para saber el ritmo

Fuente original ATAME [www.atame.org]
Colaborador original: Sebastián Vidondo [rojoamargodelsiglo@yahoo.com.ar]

Fuente: tusacordes.com