a b c d e f g h i j k l m n o p q r s t u v w x y z 0-9

Queso Ruso (intro)

Patricio Rey Y Sus Redonditos De Ricota

			
esta parte puede ser tocada con riff


----------------------------------------------------------------
----------------------------------------------------------------
---------4------4-----------------------------------------------
------4-------4---------5---------7-----------------------------
--2---------2---------5---------7-------------------------------
-------------------3----------5---------------------------------

se hace varias veces y despues de terminar la primera parte se haria lo mismo pero la esta parte x4

---------------------------------------------------------------
---------------------------------------------------------------
---------4------4------4-----4---------------------------------
-------4------4------4-----4------5------7---------------------
----2-------2------2-----2------5------7-----------------------
------------------------------3------5-------------------------
luego seria
---------------------------------------------------------------
---------------------------------------------------------------
---------------------------------------------------------------
---------------------------------------------------------------
--2--4-4-4-1-2-1--2-4-4-4--6-7-6-2-4-4-4-1-2-1-2-4-------------
---------------------------------------------------------------

Fuente: Tusacordes