a b c d e f g h i j k l m n o p q r s t u v w x y z 0-9

Preso En Mi Cuidad

Patricio Rey Y Sus Redonditos De Ricota

			
1/----------------------------------
2/----------------------------------
3/-4--2--4-2------------------------
4/-----------5-4-2--4-5----2-4-5----
5/----------------------2-----------
6/----------------------------------X2

1/----------------------------------
2/----------------------------------
3/----------------------------------
4/-----------2-----------2----------
5/-2--4-4--5----2--4-4--5-----------
6/----------------------------------

1/----------------------------------
2/----------------------------------
3/----------------------------------
4/---4-2---2-----4-2---2------------
5/-0-----5-----0-----5--------------
6/----------------------------------


1/-----------------------------------------------------
2/-----------------------------------------------------
3/-------------------------------------------2-2-2-2-2-
4/-----------2-----------2-----------------------------
5/-2--4-4--5----2--4-4--5----0-0-0-0-0-0-2-0-----------
6/-----------------------------------------------------

REPITE ASI TODO EL TEMA.

Fuente original ATAME [www.atame.org]
Colaborador original: julio villasanti [julio_elbostero88@hotmail.com]

Fuente: tusacordes.com