a b c d e f g h i j k l m n o p q r s t u v w x y z 0-9

Preso En Mi Ciudad

Patricio Rey Y Sus Redonditos De Ricota

			
 este es el tema de los redondos "preso en mi ciudad"
 es una masa espero q guste esta facil y suena bien 
 chau
   1|--------------------------------------------|
   2|-7-----5---7--5-----------------------------|
   3|----------------7---6-----4-----------------|
   4|--------------------------------------------|
   5|--------------------------------------------|
   6|--------------------------------------------|  
   
   1|--------------------------------------------|
   2|--------------------------------------------|
   3|-4----6---7------4--6---7-------------------|
   4|-------------4---------------4--------------|
   5|--------------------------------------------|
   6|--------------------------------------------|
   

   1|--------------------------------------------|
   2|-7-----5---7--5-----------------------------|
   3|----------------7---6-----4-----------------|
   4|--------------------------------------------|
   5|--------------------------------------------|
   6|--------------------------------------------|  
   
   1|--------------------------------------------|
   2|--------------------------------------------|
   3|-4----6---7------4--6---7-------------------|
   4|-------------4---------------4--------------|
   5|--------------------------------------------|
   6|--------------------------------------------|


   1|--------------------------------------------|
   2|--------------------------------------------|
   3|--------------------------------------------|
   4|----------------------------4--2-------4--2-|
   5|-2----4--5---2----4-5----0---------0--------|
   6|--------------------------------------------|

   
   1|--------------------------------------------|
   2|--------------------------------------------|
   3|--------------------------------------------|
   4|--------------------------------------------|
   5|-2----4--5---2----4-5-----------7--7--7--7--|
   6|------------------------------5--5--5--5--5-|

Fuente: tusacordes.com