a b c d e f g h i j k l m n o p q r s t u v w x y z 0-9

Preso En Mi Ciudad

Patricio Rey Y Sus Redonditos De Ricota

			
la transcripcion que ya ahi no esta bien
asi esta exactamente tocado

 Intro:
E|-5-5-0-5-5-0--|--5-5-0-5-0-5-0-- x2
A|-7-7-0-7-7-0--|--7-7-0-7-0-7-0--
D|--------------------------------
G|--------------------------------

despues todo el tema es asi siempre igual

E|--5--5--5--5--|--5--5--5--5-- x2
A|--7--7--7--7--|--7--7--7--7--
D|-----------------------------
G|-----------------------------

E|---3---3--0-2-|---3---3--0-3-
A|-----------------------------
D|-----------------------------
G|-----------------------------

E|---5---5--0-3-|---5---5--3-5-
A|-----------------------------
D|-----------------------------
G|-----------------------------

E|---7---7---3-5|---7---7--77--
A|-----------------------------
D|-----------------------------
G|-----------------------------

E|-55-55-55-55--|-55-55-55-55--
A|-----------------------------
D|-----------------------------
G|-----------------------------

Fuente original ATAME [www.atame.org]
Colaborador original: Alfredo Gaston Vidal [vidalito@tutopia.com.ar]

Fuente: tusacordes.com