a b c d e f g h i j k l m n o p q r s t u v w x y z 0-9

Preso En Mi Ciudad

Patricio Rey Y Sus Redonditos De Ricota

			
Intro
G|-----------------------------------|x4
D|-----------------------------------|
A|-0-0-0-0-0-0-0-0--2-2-2-2-2-2-2-2--|
E|-----------------------------------|

 |----------------------------------------|
 |----------------------------------------|
 |----------------------2-22-2-22---------|
 |-3-33-3-33--5-55-5-55-----------5x24--|

Verso:
G|-----------------------------------|x2
D|-----------------------------------|
A|-0-0-0-0-0-0-0-0--2-2-2-2-2-2-2-2--|
E|-----------------------------------|

Coro:
G|----------------------------------------|
D|----------------------------------------|
A|----------------------2-22-2-22---------|
E|-3-33-3-33--5-55-5-55-----------5x24--|

Solos de Saxo
G|----------------------------------------|
D|----------------------------------------|
A|----------------------2-22-2-22---------|
E|-3-33-3-33--5-55-5-55-----------5x24--|

Final
G|----------------------------|
D|----------------------------|
A|----------------------------|
E|-5-5-5-5-5-5-5-5-5-5-5-5-5--|

Escuchá la canción para saber el ritmo

Fuente original ATAME [www.atame.org]
Colaborador original: Sebastián Vidondo [rojoamargodelsiglo@yahoo.com.ar]

Fuente: tusacordes.com