a b c d e f g h i j k l m n o p q r s t u v w x y z 0-9

Preso En Mi Ciudad

Patricio Rey Y Sus Redonditos De Ricota

			
este es el punteo que hace skay en el concierto de river lo saque enchuchando el cd si alguien lo tiene
bueno que lo aproveche es el que toco en river ojala que les sirve si lo quieren conseguier el cd en prque rivadabia 
lo consigen o en lavalle  
 
|-------------------------------
|-9h10-10h12------8h9-9h13------
|-------------------------------   x2
|-------------------------------
|-------------------------------
|-------------------------------
 

I)
|-----------------------------------------------------------------------------------------------------------
|-12--10--12-12-12-10--------------------------------------12--10-10--12h10---------------------------------
|----------------------12-11--10--11h12----9-11-11h12------------------------12-11-9--11h12---9-11-11h12----
|---------------------------------------9-------------9--9----------------------------------9------------9--
|-----------------------------------------------------------------------------------------------------------
|-----------------------------------------------------------------------------------------------------------
 
|----------------------------------------------------------------------------------------------------------
|----------------------------------7-----7h8---7------7h8--------------------------------------------------
|-------------9-------------9---------9----------9------------------9--------------------------------------
|--9-11-11h12---9-11-11h12-----7-----------7-------------9-11-11h12----9-11-11h12--------------------------
|----------------------------------------------------------------------------------------------------------
|----------------------------------------------------------------------------------------------------------
 
|---------------------------------------
|---------------------------------------
|-------------------10--7--10-----------
|---7-7-7-7-9-7-7-7-----------9~~-------
|---------------------------------------
|---------------------------------------
 

|--------------------------------------------------------------------
|---12-10-10--12-12-12-10--------------------------------------------
|-------------------------12-11--9--11-11h12----9--11-11h12----------
|-9------------------------------------------9---------------9-------
|--------------------------------------------------------------------
|--------------------------------------------------------------------
 
|-----------------------------------------------------
|---12--10-10--12-10--------------------------------
|----------------------12-11-9-11-11h12----9--11-12---
|-9-------------------------------------9-----------9-
|-----------------------------------------------------
|-----------------------------------------------------
 
II)
|--------------------------------------------------------------------------------------------
|-----------------9--10-9---------------------------------12h13--13h14---12-11--12-------
|-----------9--11-----------11--10-11h12----9-----9--10h11-----------------------------------
|-9--11--12------------------------------------11--------------------------------------------
|--------------------------------------------------------------------------------------------
|--------------------------------------------------------------------------------------------
 
 
 
|--------------------------------------------------------------------------------
|---12-12-12-12--14-14h15-15-15h16-----------------------------------------------
|--------------------------------------------------------------------------------
|--------------------------------------------------------------------------------
|--------------------------------------------------------------------------------
|--------------------------------------------------------------------------------
 

I)
una vez le hice el amor, a un dracula con tacones
era un pop violento que dio 
el gran estilo siniestro
 
ahora ya no llora preso en mi ciudad
casi ya no llora atrapado en libertad
 
un esclavo sencible y chillon y facil para el gatillo
atrapo un preso bienechor con ojos al rojo vivo 
 
(aca va el punteo II)
 
I)
practicamos tiro al pichon
y un tes para el espacio, 
sombi de delicioso campeon 
y el rock como todo llanto
 
ahora ya no llora preso en mi ciudad
casi ya no llora atrapado en libertad
 
una vez le hice el amor, a un dracula con tacones
era un pop violento que dio 
el gran estilo siniestro
 
ahora ya no llora preso en mi ciudad
casi ya no llora atrapado en libertad!!!!
 
aca el III
 
III)
|-----------------------------------------------------------
|-----------------9--10-9---------------------------------
|-----------9--11-----------11--10-11h12----9-----9--10h11--
|-9--11--12------------------------------------11-----------
|-----------------------------------------------------------
|-----------------------------------------------------------
 

|---------------------------------------------------------------------------------------
|-10h12-12-12---12--10-------------12h13-13-13-13--15h16-16-(16)----12---10-10~~~~~-----
|----------------------12-11-9h10-------------------------------------------------------
|----------------------------------------------------------------9----------------------
|---------------------------------------------------------------------------------------
|---------------------------------------------------------------------------------------

Fuente original ATAME [www.atame.org]
Colaborador original: Christian Jauregui [stones67@latinmail.com]

Fuente: tusacordes.com