a b c d e f g h i j k l m n o p q r s t u v w x y z 0-9

Preso En Mi Ciudad

Patricio Rey Y Sus Redonditos De Ricota

			
Riff principal: Se toca en toda la cancion:

E:-------------------------------------------------------------------------------------
B:-8/10-8---10-8------------------------------8/10-8---10-8----------------------------
G:--------------10-9-7-9-10-----7-9-10----------------------10-9-7-9-10-----7-9-10-----
D:--------------------------7----------7---5----------------------------7----------7---
A:-------------------------------------------------------------------------------------
E:-------------------------------------------------------------------------------------

E:---------------------------------------------------------------------------------------------
B:---------------------------------------------------------------------------------------------
G:---------------------------------------------------------------------------------------------
D:-7-9-10-12-7--9-10-12------14-12-14-----14-12-14-7---9-10-12-7--9-10-12-------------12-12-12-
A:----------------------10------------10----------------------------------10-10-10-10----------
E:---------------------------------------------------------------------------------------------


Mientras una guitarra toca el riff la otra puede tocar los acordes

A                                  Bm
Una vez le hice el amor a una drácula con tacones:
A                                            Bm
era un pop violento que guió el gran estilo siniestro.

G
Ahora ya no llora...
A                                             Bm
¡Preso en mi ciudad! (¡¡¡ja-ja-ja!!!).
                          A
Casi ya no llora, ¡atrapado en libertad!


Practicamos tiro al pichón
y un test para ir al espacio
con mi delicioso campeón
y el rock como todo llanto

ahora ya no llora...
Preso en mi ciudad (¡¡¡ja-ja-ja!!!).
Casi ya no llora,
¡atrapado en libertad!

Fue un esclavo sensible y chillón
y fácil para el gatillo
atrapó un beso bienhechor
con ojos al rojo vivo.

Ahora ya no llora
casi ya no llora....

ojala les guste!!!!!!!!!

Suerte Guillo

Fuente original ATAME [www.atame.org]
Colaborador original: Guillermo Belfiori [guillocharly@hotmail.com]

Fuente: tusacordes.com