a b c d e f g h i j k l m n o p q r s t u v w x y z 0-9

Preso En Mi Ciudad

Patricio Rey Y Sus Redonditos De Ricota

			
PUNTEO 1
1|-----------------------------------------|-----------------------------------------|-->
2|-12-10-12-10-----------------------------|-12-10-12-10-----------------------------|-->
3|-------------12-11-9-11-12---9-11-12-----|-------------12-11-9-11-12---9-11-12-----|-->
4|---------------------------9---------9-7-|---------------------------9---------9-7-|-->
5|-----------------------------------------|-----------------------------------------|-->
6|-----------------------------------------|-----------------------------------------|-->

PUNTEO 2
1|-------------------------------------|----------------------------------------------------------------|
2|-----------------------7---7---7---7-|---------------------------------------10-10-10-10-10-10-7-10---|
3|---------9---------9-----9-------9---|---------9---------9--------------------------------------------|
4|-9-11-12---9-11-12---7-------7-------|-9-11-12---9-11-12---7-7-7-7-7-7-9-7----------------------------|
5|-------------------------------------|----------------------------------------------------------------|
6|-------------------------------------|----------------------------------------------------------------|

Con el Punteo 1:
        Una vez, le hice el amor
        a un Drácula con tacones
        era pop violento qu guió
        al gran estilo siniestro

Con el Punteo 2:
        Ahora ya no llora
        preso en mi ciudad
        casi ya no llora
        atrapado en libertad

Fuente original ATAME [www.atame.org]
Colaborador original: Mariano Roncati [froncati@compuciencia.com.ar]

Fuente: tusacordes.com