a b c d e f g h i j k l m n o p q r s t u v w x y z 0-9

Pool, Averna Y Papusa

Patricio Rey Y Sus Redonditos De Ricota

Am
B
Bb
			
Intro:
GUITARRA 1: Am
e|-----------5---|-----------5---|-----------5---|-----------5---|
B|-----------5---|-----------5---|-----------5---|-----------5---|
G|-----------5---|-----------5---|-----------5---|-----------5---|X4
D|---------------|---------------|---------------|---------------|
A|--x--x--x------|--x--x--x------|--x--x--x------|--x--x--x------|
E|--0--5--5------|--0--5--5------|--0--5--5------|--0--5--5------|
       ....
BAJO:
G|---------------|---------------|---------------|---------------|
D|---------------|---------------|---------------|---------------|X4
A|---------------|---------------|---------------|---------------|
E|--0--5--5------|--0--5--5------|--0--5--5------|--0--5--5------|

GUITARRA 2:        RIFF 1 
e|----------|-------------|---------------|------------------|------|--------|
B|-silencio-|-------------|---------------|------------------|------| Repite | 
G|----8-----|-------------|---------------|------------------|--#---| Riff 1 |
D|--tiempos-|-------------|---------------|------------------|------|        |
A|----------|-0-7-8--7~-|-0-0-7-8--7~-|-0-0-7-8--7~--0-|------|        |
E|----------|-------------|---------------|------------------|------|--------|


DESPUES SIGUE ASI:

* con la misma base  GUITARRA 1 y BAJO X 10 veces

GUITARRA 2:

e|--------------------------8-5-|-------------------|---------5-8--|-10b-10b-8------------|
B|-8/-10--10---7b-5-x-5-------|--------7-5--7br-|-----5-5------|-----------10-10~---|
G|---------------7b-5-x---------|-5-7-5--7-5--7br-|-5/7----------|----------------------|
D|--------------------------------|-------------------|--------------|----------------------|
A|--------------------------------|-------------------|--------------|----------------------|
E|--------------------------------|-------------------|--------------|----------------------|

e|----------------------|----------|-------------|--------------------------|--------------------
B|----------------------|-7-5----|----7/5--7/5-|--------------------------|--------------------
G|-----7-7--5-7~----|-7-5----|----7/5--7/5-|-----4-5-5-4-4------------|-4-5-5-4-4----------
D|-5-7---------------7|------7-|-7-----------|7-7----------7-7--5/7---|7---------7-7--5/7
A|----------------------|----------|-------------|------------------------7-|--------------------
E|----------------------|----------|-------------|--------------------------|--------------------

e|-------------|--------------------------|-----------------------------|-------|
B|------10~~-|--------------------------|-----------------------------|-7-5-|
G|-7-/9--------|-----4-5-5-4-4------------|-----------------------------|-7-5-|
D|-------------|7-7----------7-7--5/7---|------5----------------------|-------|
A|-------------|------------------------7-|--5/7---7--5-3-5-3-----------|-------|
E|-------------|--------------------------|--------------------5-3-5~-|-------|


VERSO 1:
[con BASE Lam] X4

Su llave arrojo    fill 1
se fue, asi, sin mas         fill 2
puteando por lo bajo se marcho  
Un killer riff en su contestador fill3
dejo sonando como confesion

GUITARRA 2:
   fill 1         fill 2              fill3          
e|-------------|---8-5---5-|--------------5----------|------|
B|---7-5-------|-5-----8-----|-7-5---------------------|------|
G|---7-5-----5-|-------------|-7-5--7br-5-7---7-5-7~-5-|------|
D|-------7---|-------------|-------------------------|-7~-|
A|-------------|-------------|-------------------------|------|
E|-------------|-------------|-------------------------|------|


PUENTE base lam X 2

e|---------------------------|------------------------|---------------|-----|
B|---------------------------|------------------------|------10-10~-|--5--|
G|------4-5-5-4-4------------|---4-5-5-4-4------------|-7-/9----------|--5--|
D|7-7-----------7-7--5/7---|-7-----------7-7--5/7-|---------------|-----|
A|---------------------------|------------------------|---------------|-----|
E|---------------------------|------------------------|---------------|-----|


VERSO 2:
[con BASE Lam] X4

GUITARRA2:
   fill 4         fill 5              fill6                fill7
e|-----------|----------------|-------------------------|------------------|
B|---7--5----|-8h10--10~-10~|-5-5---5--7-7-7--7-/5--|------------------|
G|---7--5----|----------------|-5-5---5--7-7-7--7-/5--|-7/9--7-5---------|
D|-----------|----------------|-------------------------|----------7-5-7~|
A|-----------|----------------|-------------------------|------------------|
E|-----------|----------------|-------------------------|------------------|

                            fill 4
Sin bulchitear a nobody, man
una corazonada fue esta vez... fill 5
lo puso en la ruta...bie bie!  fill6
fill 7
con pases de chabona y lagrimas. 


ESTRIBILLO:

GUITARRA 1: [si-sib] [BASE lam X2]

BAJO:   si bajada      SIbsubida
G|--------------------|-------------------|
D|--------------------|-------------------| y despues BASE LAm X2
A|--------------------|-------------------|
E|-7-7-7-7-7-7-7-7----|--6-6-6-6-6-6-6-6--| 

GUITARRA 2:
    bajada                                                subida
e|----------------------------------7----7-10-7---7~/|--6-3---3--------------------------------
B|--------------------7---7-10-7-10---10--------7------|------6---6-3-6-3---3--------------------
G|-------7----7-9-7-9---9------------------------------|------------------5---5-3-5-3---3--------
D|-9-7-9---9-------------------------------------------|------------------------------5---5-3-5-3
A|-----------------------------------------------------|-----------------------------------------
E|-----------------------------------------------------|-----------------------------------------

e|----------------|----------|-----------|---------|-----------|
B|----------------|----------|--7--7-5---|---------|--7-7---5--|
G|----------------|--Riff 1--|--7--7-5---|--Riff 1-|--7-7---5--|
D|---3------------|----------|-----------|---------|-----------|
A|-5---5-3-5-3----|----------|-----------|---------|-----------|
E|-------------5--|----------|-----------|---------|-----------|


BAJADA 
Con un platino de American Express
SUBIDA
trucho, pero un lindo camaleon.


VERSO 4:
[CON BASE Lam] x4

GUITARRA 2:
    fill 8     fill 9           fill 10          fill 11
e|--------|-----------------|------------------|------8----------------|
B|--7-5-|-/-10~ --------|--5---5---7-7/5-|-8h10---10-8-10-10~/-|
G|--7-5-|-----------------|--5---5---7-7/5-|-----------------------|
D|--------|---------12-10-|------------------|-----------------------|
A|--------|-----------------|------------------|-----------------------|
E|--------|-----------------|------------------|-----------------------|

                            fill 8
Se despidio del negro Burgundy
                            fill 9
pero ensueguida le bajo el pulgar
                            fill 10
brindo tambien con el flaco Merlin
                            fill 11
y vacaciones dio a su corazon...


ESTRIBILLO 2:

GUITARRA 1: [si-sib] [BASE lam X1]

BAJO:   si bajada      SIbsubida
G|--------------------|-------------------|
D|--------------------|-------------------| y despues BASE LAm X1
A|--------------------|-------------------|
E|-7-7-7-7-7-7-7-7----|--6-6-6-6-6-6-6-6--| 

GUITARRA 2:
    bajada                                                subida
e|----------------------------------7----7-10-7---7~/|--6-3---3--------------------------------
B|--------------------7---7-10-7-10---10--------7------|------6---6-3-6-3---3--------------------
G|-------7----7-9-7-9---9------------------------------|------------------5---5-3-5-3---3--------
D|-9-7-9---9-------------------------------------------|------------------------------5---5-3-5-3
A|-----------------------------------------------------|-----------------------------------------
E|-----------------------------------------------------|-----------------------------------------

e|----------------|-----------|-----------||
B|----------------|-5---7-5-|-----------||
G|----------------|-5---7-5-|-----------||
D|---3------------|---7-------|-7-5-7~/-||
A|-5---5-3-5-3----|-----------|-----------||
E|-------------5--|-----------|-----------||


BAJADA B
No hay quien le quite a ese gallo el espolon!
SUBIDA Bb
Que ruede la bola! El zumba se va! bie bie!.


SOLO DE SAXO:

BAJO:
G|------------|------------|------------|------------|-----y-------|
D|------------|------------|------------|------------|----BASE-----|
A|-------7--|-------7--|-------7--|-------7--|-----X2------|
E|-0--------|-0--------|-0--------|-0--------|-------------|

GUITARRA 1: [MI VII]  [BASE LAM X2]

GUITARRA 2:
e|------------|------------|------------|------------|----------|-----|--------|
B|------------|------------|------------|------------|----------|-----|--------|
G|-------9--|-------9--|-------9--|-------9--|--RIFF 1--|--#--|-Riff 1-|
D|-------9--|-------9--|-------9--|-------9--|----------|-----|--------|
A|-------7--|-------7--|-------7--|-------7--|----------|-----|--------|
E|-0--------|-0--------|-0--------|-0--------|----------|-----|--------|


PUENTE 2:
[guitarra 1 y BAJO hacen la base X 4]

GUITARRA 2:
e|---------------------------|------------------------|---------------|--------------------------
B|---------------------------|------------------------|------10-10~-|--------------------------
G|------4-5-5-4-4------------|---4-5-5-4-4------------|-7-/9----------|------4-5-5-4-4-----------
D|7-7-----------7-7--5/7---|-7-----------7-7--5/7-|---------------|7-7----------7-7--5/7---
A|---------------------------|------------------------|---------------|--------------------------
E|---------------------------|------------------------|---------------|--------------------------

e|-----------------------------|------------|
B|-----------------------------|--7br-------|
G|-----------------------------|--7br-/-5-|
D|------5----------------------|------------|
A|--5/7---7--5-3-5-3-----------|------------|
E|--------------------5-3-5~-|------------|


VERSO 5:
[guitarra 1 y BAJO hacen la base X 4]

GUITARRA 2:
            Fill 12                  fill 13       fill 14
e|-8-8-8-8-8--|-----5-8-5---5~-|------------|-----5-5-/-11-8-----|
B|-8-8-8-8-8--|-5-8-------8------|------------|-5-8--------------10--|
G|------------|------------------|---7br----|----------------------|
D|------------|------------------|------------|----------------------|
A|------------|------------------|------------|----------------------|
E|------------|------------------|------------|----------------------|

                         fill 12
Bendita sea su vieja pick-up

lo hecho de la cabina y se desvio
                      fill 13
lo escupio y desbarranco
                  fill 14
y al borde del abismo lo dejo


ESTRIBILLO 3 :

BAJADA 
Fue la claridad que lo enceguecio
SUBIDA
Que ruede la bola! El zumba se fue!     Bie-bie!
                                    

SOLO DE GUITARRA: [con base X4]

Guitarra solo
e|------------------|--------------|---------------|-----8--5-5~-|-10-10b-8-10----8----|-------
B|-8h10-10~---7-5-|--------7-7---|-5-7-5-7-5-----|-5/8-----------|-------------10---10-|------
G|--------------7-5-|-----5--7-7br-|-5-7-5-7-5-----|---------------|---------------------|------
D|------------------|-5-7----------|-----------7-|---------------|---------------------|------
A|------------------|--------------|---------------|---------------|---------------------|------
E|------------------|--------------|---------------|---------------|---------------------|-------

e|--------------------------------------------------|
B|------------------------5--7----------------------|
G|------7b-7b--7b-7b--7b--5--7--5-------------------|
D|-5-7----------------------------7-5--7-5----------|
A|--------------------------------------------------|
E|-----------------------------------------8--5~--|


FINAL [CON BASE Lam ] X 4 fade out

arreglo :
e|---------------|-----------------|
B|-10-8----------|-----------------|
G|------10-7-9-|-7-9-7-9-9-----|X3
D|---------------|-------------7-|
A|---------------|-----------------|
E|---------------|-----------------|


fin.

Fuente original ATAME [www.atame.org]
Colaborador original: Guille [elguille665@hotmail.com]

Fuente: tusacordes.com