a b c d e f g h i j k l m n o p q r s t u v w x y z 0-9

Pool, Averna Y Papusa

Patricio Rey Y Sus Redonditos De Ricota

Am
B
			
Transcribed by: Pablo Lizardo
Email: pablo_lizardo@hotmail.com

-------|-------------5-|----------------------------------|-------------------
-------|-------------5-|----------------------------------|-------------------
-------|-------------5-|----------------------------------|-------------------
-------|-x--x---x----7-|----------------------------------|-------------------
-------|-x--x---x----7-|--7-7-8--7v--7-7-8--7v--7-7-8-7---|-------------------
-------|-0--5---5----5-|--------------------------------5-|-------------------
 INTRO   E  A5  A5   Am                                                       

-|---3-/5----------------8-5--------------------------------------------------
-|-5---/5--------------5-----5------------------------------------------------
-|--------x-x-x-7b-5-----------7-5---5---7b7r---------------------------------
-|---------------------------------7---7--------------------------------------
-|----------------------------------------------------------------------------
-|----------------------------------------------------------------------------
                                                                              

--------5-8-10-10-8-5-8-------------------|-----------------------------------
----5-5-----------------------------5-----|-----------------------------------
--7------------------------5-7v7v7v---7---|---4-5-5-4-4-----------------------
-------------------------7--------------7-|-7-----------7-5-7-----------------
------------------------------------------|-------------------7---------------
------------------------------------------|-----------------------------------
                                                                              

------------------------5--|---------------------------------------------------
-----------------------5---|---------------------------------------------------
---4-5-5-4-4----------7----|---------------------------------------------------
-7-----------7-7-5-7-------|---------------------------------------------------
---------------------------|---------------------------------------------------
---------------------------|---------------------------------------------------
                                                                              

------------------------------------------------------------------------------
------------------------------------------------------------------------------
---4-5-5-4-4------------------------------------------------------------------
-7-----------7-5-7------5-7-5-------------------------------------------------
-------------------7--7-------5---5-------------------------------------------
--------------------------------8---8-5-3-5-----------------------------------

Todo el tema sigue con la primera introduccion Am 
y despues ase una escala IMPOSIBLE en SI B.. que me iso acordar a la hermana y a la 
madre de Saky durante largas tardes de explotacion indiscriminada de sentidos!.... 
y despues ..??.. despue sclaro!... buelve como todo!.. a LA Menor!... Am... es como 
las minas.. siempre vuelven

Fuente original ATAME [www.atame.org]
Colaborador original: Pablo Lizardo [pablo_lizardo@hotmail.com]

Fuente: tusacordes.com