a b c d e f g h i j k l m n o p q r s t u v w x y z 0-9

Pensando Como Una Acelga

Patricio Rey Y Sus Redonditos De Ricota

			
INTRO:
GUITARRA1:
e|--------------------|--2--2-/-|----4-5-7-5-4------|--2--2-/---|
B|--------------------|--3--3-/-|--7-----------7~-|--3--3-/---|
G|--------------------|--2--2-/-|-------------------|--2--2-/---|X2
D|-------4--7--6~~--|--0--0-/-|-------------------|--0--0-----|
A|-----5--------------|---------|-------------------|-----------|
E|---5----------------|---------|-------------------|-----------|

BAJO:  RE
G|-----------------------------------------------------------|
D|-----------------------------------------------------------|
A|--5-5-5-5-5-5-5-5-5-5-5-5-5-5-5-5-5-5-5-5-5-5-5-5-5-5-5-5-5|
E|-----------------------------------------------------------|

GUITARRA 2  todo el tiempo toca RE5


sigue asi...

GUITARRA 1:                                                     Si/si7
e|------------------|--2--2-/-|--------------|--2--2-/--|--|--------------------------|
B|------------------|--3--3-/-|--------------|--3--3-/--|--|--------------------------|
G|------------------|--2--2-/-|-2------2~~-|--2--2-/--|X2|--4--4--4--4--4--44--4--4-|
D|--4---------------|--0--0-/-|---3----------|--0--0----|--|--4--3--4--3--4--33--4--3-|
A|----5-----5-/-8-|---------|-----5--------|----------|--|--------------------------|
E|------5-----------|---------|--------------|----------|--|--------------------------|

BAJO:       RE                                                 SI
G|------------------------------------------------------|-------------------------------------|
D|------------------------------------------------------|-------------------------------------|
A|--5-5-5-5-5-5-5-5-5-5-5-5-5-5-5-5-5-5-5-5-5-5-5-5-5-5-|-------------------------------------|
E|------------------------------------------------------|--7-5-7-7-7-7--7-5-7-7-7-7-5-7-7-7-7-|

GUITARRA 2 [RE5]


VERSO1:

GUITARRA :                             _______X3_______
e|------------.-----|-------------|--|------------.-----|
B|------------.-----|-------------|--|------------.-----|
G|-7--5--7--.-7-|---#---------|X2|-7--5--7--.-7-|
D|-6--4--6--.-6-|-------------|--|-6--4--6--.-6-|
A|------------.-----|-------------|--|------------.-----|
E|------------.-----|-------------|--|------------.-----|

BAJO:                                 _________X3_______
G|------------.-----|---------.---|--|------------.-----|
D|------------.-----|---------.---|X2|------------.-----|
A|------------.-----|---------.---|--|------------.-----|
E|-4--2--4--.-4-|4-2-4--.4|--|-4--2--4--.-4-|


Volanteás, volcás
Tu taxi paranormal,
Tan fuera de foco,
Meloneando el coco


ESTRIBILLO: 

                        C
Parpadeando a lo gurú-vudú.
C7
Definitivamente limpio.
Definitivamente curado.
Así también te ves bien.

VERSO 2: igual

Ciego de felicidad,
Tu cerebro es un jabón.
Con tu flor de espadas
En plan de chofer suicida


ESTRIBILLO 2: Igual

Y de curabichero online.
Pero a veces, muy pocas veces
Se te escapa un poquito el diablo.
Así también te ves bien.


INTERMEDIO:

BAJO: ____RE________________X2_________________           LA
G|------------|--|--------------|---------------|  |-----------------------------|
D|------------|X3|--------------|---------------|  |-----------------------------|
A|-5-5-5-5-4--|--|-5-5-5-5-54-|-5-5-5-5-5-5-5-|  |-----------------------------|
E|------------|--|--------------|---------------|  |-5-5-5-5-5-5-5-5-5-5-5-5-5-5-|

GUITARRA 1:
   _________________________X2________________________
  |                                                   |
e|-9-9-9-9-9-9--7--|--|-9-9-9-9-9-9-9-7-/-|--------|   |--------|
B|-8-8-8-8-8-8--8--|--|-8-8-8-8-8-8-8-8-/-|--------|   |--------|
G|-----------------|X3|-----------------------|--RE5---|   |---LA5--|
D|-----------------|--|-----------------------|--------|   |--------|
A|-----------------|--|-----------------------|--------|   |--------|
E|-----------------|--|-----------------------|--------|   |--------|

GUITARRA 2: hace esto sobre LA5
                                                          
e|--------------------------------|
B|--------------------------------|
G|--------------------------------|
D|-7p5-7p5-7p5-7p5-7p5-7p5-7p5-7p5|
A|--------------------------------|
E|--------------------------------|

VERSO 3 igual

Guitarra:  fill 1
e|------------------------|
B|------------------------|
G|------------------------|
D|------4--6----7----6~-|
A|--5-5------5----5-------|
E|------------------------|


"Te servís, brindás  
                    fill 1
Con un consejito cruel.
Loco por una colilla
Vas en carne viva


ESTRIBILLO 3: Igual
                   
Y gracias por el trago, man.
Dicen que ya no hay huevos de oro
Al final del arcoiris.
Las reliquias huelen mal.


VERSO 4: igual

Abracada bla bla.
Estás tan sonaja, man.
Cara de loco esqueleto.
Masticás la pepa



ESTRIBILLO 4: Igual

De loquito, ye, ye.
Definitivamente limpio.
Definitivamente curado.
Así también te ves muy bien.
     

OUTRO: final

BAJO y GUITARRA 2 :[RE ] todo el tiempo

GUITARRA1:
e|-2-2/-|------------------|--2--2-/-|--------------|--2--2-/-|
B|-3-3/-|------------------|--3--3-/-|--------------|--3--3-/-|
G|-2-2/-|------------------|--2--2-/-|-2------2~~-|--2--2-/-|X1
D|-0-0--|--4---------------|--0--0-/-|---3----------|--0--0---|
A|------|----5-----5-/-8-|---------|-----5--------|---------|
E|------|------5-----------|---------|--------------|---------|

e|--------------------|--2--2-/-|----4-5-7-5-4------|--2--2-/---|
B|--------------------|--3--3-/-|--7-----------7~-|--3--3-/---|
G|--------------------|--2--2-/-|-------------------|--2--2-/---|X2
D|-------4--7--6~~--|--0--0-/-|-------------------|--0--0-----|
A|-----5--------------|---------|-------------------|-----------|
E|---5----------------|---------|-------------------|-----------|

TODO ESTO TOCARLO 2 veces.
 
y despues....

e|--------------------|
B|--------------------|
G|--------------------|
D|------4--7--6~~---| dejar sonar
A|----5---------------|
E|--5-----------------|


FIN.

Fuente original ATAME [www.atame.org]
Colaborador original: Guillee [elguille665@hotmail.com]

Fuente: tusacordes.com