a b c d e f g h i j k l m n o p q r s t u v w x y z 0-9

Patricio Super Show

Patricio Rey Y Sus Redonditos De Ricota

			
Intro:
Guitarra:
             riff 1                               riff 2
e|------------10-10---------10-/-|--10-10-|--|----------10-10--------10-10-10-------10-|10-10---|
B|--------10---------12-10-----/-|--10-10-|--|-------10-------12-10-----------12-10----|10-10---|
G|--10h11------------------------|--10-10-|X2|--10h11----------------------------------|10-10---|
D|-------------------------------|---9--9-|--|-----------------------------------------|-9--9---|
A|-------------------------------|--------|--|-----------------------------------------|--------|
E|-------------------------------|--------|--|-----------------------------------------|--------|
                                             LA          SOL            RE           
e|-10---12-12-12--|-----------|----------|-------------|--------------|--10----||
B|-10---12-12-12--|-----------|----------|-12-x-12-12--|-10----10-10--|--10----||
G|-10---12-12-12--|---SOL9----|--RE*-----|-12-x-12-12-x|-10--x-10-10--|--10----||Silencio
D|--9---11-11-11--|-----------|----------|-11-x-11-11-x|--9--x--9--9--|--12----||
A|----------------|-----------|----------|-12-x-12-12-x|-10--x-10-10--|--------||
E|----------------|-----------|----------|-------------|--------------|--------||


BAJO: riff 1    RE       riff 2  RE                            SOL             RE
G|-----------|-----|--|----------------------|-----------|-------------------|----------------|
D|-silencio--|-----|X2|-----#---------#------|-----------|--------2--------2-|----------------|
A|-----------|-5-5-|--|----------5--------5--|-5-5-7-9-10|----2-5------2-5---|-5----2-5-----2-|
E|-----------|-----|--|----------------------|-----------|--3--------3-------|---2-5----2-5---|
    LA           SOL
G|------------|------------|------------|
D|---------4--|---------2--|--------#---|
A|----4--7----|----2--5----|--5---------|
E|--5---------|--3---------|------------|


"Patricio - Super - Show."


VERSO 1:
BAJO:  REm       REm          SOL               RE     RE         LA         SOL         RE
G|----------|--|----------|------------------|-----------------|-----------|-----------|--------|
D|----------|X3|----------|-------2--------2-|-----------------|--------4--|--------2--|------#-|
A|-5------2-|--|--5-2-----|---2-5------2-5---|-5----2--5-----2-|----4-7----|----2-5----|---5----|
E|---2-5----|--|------5-2-|-3--------3-------|--2-5------2-5---|--5--------|--3--------|--------|

GUITARRA:
   RE*                                      SOL9                                   LA9      Sol9
e|--10-10-10--10-10--10-10-10--xxx-|--|--------------------------------|-----|---------|--------|
B|--10-10-10--10-10--10-10-10--xxx-|--|-10-10-10--10-10--10-10-10--xxx-|-RE--|-12-12-12|10-10-10|
G|--10-10-10--10-10--10-10-10--xxx-|X2|-10-10-10--10-10--10-10-10--xxx-|-X1--|-12-12-12|10-10-10|
D|---9--9--9---9--9---9--9--9--xxx-|--|--9--9--9---9--9---9--9--9--xxx-|-----|-11-11-12|-9--9--9|
A|---------------------------------|--|-10-10-10--10-10--10-10-10--xxx-|-----|-12-12-12|10-10-10|
E|---------------------------------|--|--------------------------------|-----|---------|--------|
   RE*
e|--10-10-10--10-10--10-10-10--xxx-||
B|--10-10-10--10-10--10-10-10--xxx-||
G|--10-10-10--10-10--10-10-10--xxx-||
D|---9--9--9---9--9---9--9--9--xxx-||
A|---------------------------------||
E|---------------------------------||


RE*
Algo muy escandaloso, algo escandaloso,

algo escandaloso sucedió en el bazar.
SOL9
Algo muy escandaloso, pero muy escandaloso,
RE*
algo escandaloso sucedió en el bazar.
LA9                 SOL9                   RE* silencio
Algo muy escandaloso sucedió en el bazar.

Patricio - Super - Show...



VERSO 2: igual

Algo muy escandaloso, algo escandaloso,
algo escandaloso sucedió en el bazar.
Algo muy escandaloso, pero muy escandaloso,
algo escandaloso sucedió en el bazar.
Algo muy escandaloso sucedió en el bazar.
Patricio - Super - Show...


SOLO DE GUITARRA:


BAJO:  REm       REm          SOL           RE     RE         LA         SOL         RE
G|--------|--|---------|------------------|-----------------|----------|---------|--------------|
D|--------|X3|---------|-------2--------2-|-----------------|--------4-|--------2|--------------|
A|-5-----2|--|-5-2-----|---2-5------2-5---|-5----2--5-----2-|----4-7---|----2-5--|5----2--5-2---|
E|---2-5--|--|-----5-2-|-3--------3-------|--2-5------2-5---|--5-------|--3------|-2-5-------5-2|
     REm       REm          SOL              RE     RE         LA         SOL         RE
G|--------|--|---------|------------------|-----------------|----------|---------|--------------|
D|--------|X3|---------|-------2--------2-|-----------------|--------4-|--------2|--------------|
A|-5-----2|--|-5-2-----|---2-5------2-5---|-5----2--5-----2-|----4-7---|----2-5--|5----2--5-2---|
E|---2-5--|--|-----5-2-|-3--------3-------|--2-5------2-5---|--5-------|--3------|-2-5-------5-2|

GUITARRA:
             RE               RE                SOL                          Re
e|-------------------|--|-------------------|----------------------------|----------------------|
B|-------10-12-10-12b|--|-12-10-12-10----10-|----------------------------|-------10-12-10-12b---|
G|-10h11-------------|X3|-------------11----|-----7-9-7-9b------7-9-7-9b-|-10h11----------------|
D|-------------------|--|-------------------|-7h9-----------7-9----------|----------------------|
A|-------------------|--|-------------------|----------------------------|----------------------|
E|-------------------|--|-------------------|----------------------------|----------------------|
  RE                      LA             SOL                      RE
e|-------------------|-----------------|---------------|--------------------------------|
B|-12-10-12-10----10-|-----------------|---------------|------10------------------------|
G|-------------11----|------9-11-9-11b-|-----7-9-7-9b--|7-9b----10b-10b/9-7-9-7-------|
D|-------------------|-9h11------------|-7h9-----------|--------------------------9-7-(7|
A|-------------------|-----------------|---------------|--------------------------------|
E|-------------------|-----------------|---------------|--------------------------------|
   RE                                      SOL9                                   LA9      Sol9
e|--10-10-10--10-10--10-10-10--xxx-|--|--------------------------------|-----|---------|--------|
B|--10-10-10--10-10--10-10-10--xxx-|--|-10-10-10--10-10--10-10-10--xxx-|-RE--|-12-12-12|10-10-10|
G|--10-10-10--10-10--10-10-10--xxx-|X2|-10-10-10--10-10--10-10-10--xxx-|-X1--|-12-12-12|10-10-10|
D|--12-12-12--12-12--12-12-12--xxx-|--|--9--9--9---9--9---9--9--9--xxx-|-----|-11-11-12|-9--9--9|
A|---------------------------------|--|-10-10-10--10-10--10-10-10--xxx-|-----|-12-12-12|10-10-10|
E|---------------------------------|--|--------------------------------|-----|---------|--------|
   RE
e|--10-10-10--10-10--10-10-10--xxx-||
B|--10-10-10--10-10--10-10-10--xxx-||
G|--10-10-10--10-10--10-10-10--xxx-||
D|--12-12-12--12-12--12-12-12--xxx-||
A|---------------------------------||
E|---------------------------------||

VERSO 3: igual


Algo muy escandaloso, algo escandaloso,
algo escandaloso sucedió en el bazar.
Algo muy escandaloso, pero muy escandaloso,
algo escandaloso sucedió en el bazar.
Algo muy escandaloso sucedió en el bazar.



FINAL:    "Patricio - Super - Show..."

BAJO:

G|------------------------------|---------|
D|-------4-4-4-5-5-5-6-6-6---7--|--4------|
A|--5-5-5-----------------------|----(5)--|
E|------------------------------|---------|

GUITARRA:

e|------------------------------|---------|
B|------------------------------|---------|
G|------------------------------|----(7)--|
D|-------4-4-4-5-5-5-6-6-6---7--|-4--(7)--|
A|--5-5-5-----------------------|----(5)--|
E|------------------------------|---------|

fin..

Fuente original ATAME [www.atame.org]
Colaborador original: Guille [elguille665@hotmail.com]

Fuente: tusacordes.com