a b c d e f g h i j k l m n o p q r s t u v w x y z 0-9

Nueva Roma

Patricio Rey Y Sus Redonditos De Ricota

			
Intro
G|---------------------------|-------------------|
D|-----------------------2h4-|-------------------|
A|-------------------2h4-----|-------------------|
E|-0h2-2-0h2-2-0h2-2---------|-0h2-2-0h2-2-0--22-|
 |     TRES       Veces      |

Verso
G|---------------------------|----------------------|
D|-----------------------2h4-|----------------------|
A|-------------------2h4-----|----------------------|
E|-0h2-2-0h2-2-0h2-2---------|-0h2-2-0h2-2-0h2-2-00-|

Verso 2
G|--------------|x4
D|--------------|
A|-222222222222-|
E|--------------|

Verso
G|---------------------------|----------------------|
D|-----------------------2h4-|----------------------|
A|-------------------2h4-----|----------------------|
E|-0h2-2-0h2-2-0h2-2---------|-0h2-2-0h2-2-0h2-2-00-|

Verso 2
G|--------------|x4
D|--------------|
A|-222222222222-|
E|--------------|

Pre-Coro
G|--------------|x2
D|--------------|
A|-444444444444-|
E|--------------|

Coro
G|------------|x4
D|------------|
A|-77-66-55-4-|
E|------------|

Solo de Guitarra
G|---------------------------|----------------------|
D|-----------------------2h4-|----------------------|
A|-------------------2h4-----|----------------------|
E|-0h2-2-0h2-2-0h2-2---------|-0h2-2-0h2-2-0h2-2-00-|
 |       SIETE     Veces     |

Coro
G|------------|x4
D|------------|
A|-77-66-55-4-|
E|------------|

Solo de Guitarra 2
G|---------------------------|-------------------|
D|-----------------------2h4-|-------------------|
A|-------------------2h4-----|-------------------|
E|-0h2-2-0h2-2-0h2-2---------|-0h2-2-0h2-2-0--22-|
 |     TRES       Veces      |

Verso
G|---------------------------|----------------------|
D|-----------------------2h4-|----------------------|
A|-------------------2h4-----|----------------------|
E|-0h2-2-0h2-2-0h2-2---------|-0h2-2-0h2-2-0h2-2-00-|

Verso 2
G|--------------|x4
D|--------------|
A|-222222222222-|
E|--------------|

Verso
G|---------------------------|----------------------|
D|-----------------------2h4-|----------------------|
A|-------------------2h4-----|----------------------|
E|-0h2-2-0h2-2-0h2-2---------|-0h2-2-0h2-2-0h2-2-00-|

Verso 2
G|--------------|x4
D|--------------|
A|-222222222222-|
E|--------------|

Solo de Saxo
G|--------------|--------------|--------------|---------------------------|
D|--------------|--------------|--------------|---------------------------|
A|-444444444444-|--------------|-444444444444-|-777777777777/999999999999-|
E|--------------|-222222222222-|--------------|---------------------------|
 | CUATRO Veces |  DOS  Veces  |  DOS   Veces |

Final
G|-----------------------------------------------------------|
D|-----------------------------------------------------------|
A|-10-10-9-9-8-8-7-7-5-5-4-4-3-3-2-2-1-1---------------------|
E|---------------------------------------5-5-4-4-3-3-2---0-2-|

Escuchá la canción para saber el ritmo

Fuente original ATAME [www.atame.org]
Colaborador original: Sebastián Vidondo [rojoamargodelsiglo@yahoo.com.ar]

Fuente: tusacordes.com