a b c d e f g h i j k l m n o p q r s t u v w x y z 0-9

Nuestro Amo Juega Al Esclavo

Patricio Rey Y Sus Redonditos De Ricota

			
NUESTRO AMO JUEGA AL ESCLAVO,
Intro:

Guitarra:
e|-------------------------|--------------------------||
B|-------------------------|----------------------3---||
G|-----0--0--1^0-----0-----|-------0--0--1^0----------|| X2
D|-0^3-------------3----0--|--0^3--------------3------||
A|-------------------------|--------------------------||
E|-------------------------|--------------------------||

BAJO: en redondas
G|----------------------------------------------------||
D|----------------------------------------------------|| X2
A|----------------------------------------------------||
E|------------------------3-------------------------3-||

sigue..

Guitarra:
e|-------------------------|--------------------------||
B|-------------------------|----------------------3---||
G|-----0--0--1^0-----0-----|-------0--0--1^0----------|| X2
D|-0^3-------------3----0--|--0^3--------------3------||
A|-------------------------|--------------------------||
E|-------------------------|--------------------------||

BAJO: en Blancas
G|----------------------------------------------------||
D|----------------------------------------------------|| X2
A|----------------------------------------------------||
E|---------3--------------3--------------3----------3-||

despues hace este punteo...

guitarra:

e|-------7-----------7--10-10--10--7------7----------|------7-7--7-10-7--10--10-7--7---------||
B|----8-----8-----8---------------------8-----8----8-|8---8----8-----------------8--8-8-8/-||
G|-/-7---------7--------------------------------7------|--7----------------------------7-------||
D|-----------------------------------------------------|---------------------------------------||
A|-----------------------------------------------------|---------------------------------------||
E|-----------------------------------------------------|---------------------------------------||

BAJO: escuchar bien el tema, para saber el ritmo 
G|---------------------------------------------------------------------------------------------||
D|---------------------------------------------------------------------------------------------|| 
A|---------------------------------------------------------------------------------------------||
E|---3-----3--333----3-----3--333----3-----3--333----3-----3--333----3-----3--333----3-----3---||


VERSO:  
------ 
MI                             RE
Mucha tropa riendo en las calles
MI                            RE
con sus muecas rojas cromadas
MI                         RE
y por las carreteras valladas
MI                     RE       INTERMEDIO
escuchas caer tus lagrimas



                          aclaracion:  v: Pua hacia arriba    
guitarra:                              ^: PUA hacia abajo
--------                            

  MI                            RE                    mi                      RE            
e|-11b-r12----|------------|----2--2--2--||--||-11br12--11br12-|------|--2-2-2-||
B|--------------|-dejar sonar|----3--3--3--||X1||--------------------|-dejar|--3-3-3-||
G|--------------|------------|----2--2--2--||--||--------------------|-sonar|--2-2-2-|| X3
D|--------------|------------|----0--------||--||--------------------|------|--------||
A|--------------|------------|-------------||--||--------------------|------|--------||
E|--------------|------------|----^--v--^--||--||--------------------|------|--^-v-^-||

BAJO:    MI                     RE                   MI                       RE
G|---------------------------|-------------||--||---------------------------|--------||
D|---------------------------|-------------||X1||---------------------------|--------|| X3
A|---------------------------|----5--5--5--||--||---------------------------|--5-5-5-||
E|--0----0---0---0---0---0---|-------------||--||--0---0---0---0---0---0----|--------||



INTERMEDIO:

guitarra:     SOL

e|----------7------------------------------------------------------||
B|-8-----8----8---9-8-6--/8---8-6----------------------------------||
G|----7----------------------------7-5-4-5^4^-----5----3/5-5-----||
D|--------------------------------------------5-6---6--------------||
A|-----------------------------------------------------------------||
E|-----------------------------------------------------------------||

BAJO: escuchar bien el tema, para saber el ritmo 
G|-----------------------------------------------------------------||
D|-----------------------------------------------------------------|| 
A|-----------------------------------------------------------------||
E|---3-----3--333----3-----3--333----3-----3--333----3-----3--333--||


2do VERSO: guitarra y bajo lo mismo que en el primer verso
----------


Nuestro amo juega al esclavo
de esta tierra que es una herida
que se abre todos los dias
a pura muerte, a todo gramo



y engancha con....

el ESTRIBILLO:
--------------
Guitarra Y bajo:

[ RE5 ]  [ DO5 - SOL5 ]   simplemente tocan las notas acompañando la melodia de al voz

  RE       do                  sol
        "VIOLENCIA..... eS MENTIR"



SOLO DE GUITARRA:
  guitarra 1:                sol
e|--------------------------------------------------------||
B|--------------------------------------------------3~--||
G|--------------------------------------------------------|| X4
D|----555--0^3-----555--0^3-----555--0^3-----6^5--3-------||
A|--------------------------------------------------------||
E|--------------------------------------------------------||

guitarra 2:
||--------------------------------------------------------||
||----SOL-----SOL------SOL-----SOL-----SOL-----SOL--------||X4
||--------------------------------------------------------||

bajo:
G|--------------------------------------------------------||
D|--------------------------------------------------0---||X4
A|--------------------------------------------------------||
E|----333--0^1-----333--0^1-----333--0^1-----4^3--1-------||

sigue...
guitarra 1
          FA                SOL                              RE          DO       
e|------------5-----------|-------3-4-3-------------------|-----------|-------------------
B|-------6-8----6~--8-6-|-8~--------6^9--6^8--8-8b~-|-6--5^6--|5---3^0--3/------
G|-5b~------------------|-------------------------------|-----------|-------------------
D|------------------------|-------------------------------|-----------|-------------------
A|------------------------|-------------------------------|-----------|-------------------
E|------------------------|-------------------------------|-----------|-------------------

guitarra 2                                                     RE        do
e|------------------------|-------------------------------|-----------|------------------
B|------------------------|-------------------------------|-----------|------------------
G|-----------FA5----------|----------SOL5-----------------|------5----|-----------------
D|------------------------|-------------------------------|----3---3--|---2---5--------
A|------------------------|-------------------------------|--5--------|-3----------------
E|------------------------|-------------------------------|-----------|------------------
 BAJo:    FA                         Sol                     re           do
G|------------------------|-------------------------------|------5----|-----------------
D|------------------------|-------------------------------|----3---3--|---2----5---------
A|------------------------|-------------------------------|--5--------|-3---------3------
E|-1--1---111---1--1--111-|-3-----3--333----3-----3--333--|-----------|-------------------

termina asi....

guitarra 1 :
  Sol                                    RE           DO        SOL
e|-----7------------------7-----------|---------5-|-----------|-----------|
B|-/-8---8----8---8-----8---8~--|------6-8--|-5b------|-----------|
G|----------------7-----------7-------|-----------|--------7-5|-7-------|
D|------------------------------------|-----------|-----------|-----------|
A|------------------------------------|-----------|-----------|-----------|
E|------------------------------------|-----------|-----------|-----------|

guitarra 2                                  RE        do
e|------------------------------------|-----------|-----------|-----------|
B|------------------------------------|-----------|-----------|-----------|
G|----------SOL5----------------------|------5----|-----------|---SOL5----|
D|------------------------------------|----3---3--|---2---5-|-----------|
A|------------------------------------|--5--------|-3---------|-----------|
E|------------------------------------|-----------|-----------|-----------|

BAJO:
G|------------------------------------|------5----|-----------|-----------|
D|------------------------------------|----3---3--|---2----5--|-----------|
A|------------------------------------|--5--------|-3--------3|-----------|
E|--3--3---333----3--3---333---3-3--3-|-----------|-----------|-3-3---333-|

fin del solo


3er VERSO:
---------

Formidables guerreros en jeeps
los titanes del orden viril
que botines esperan ganar?
si nunca un perro mira el cielo


REPITE INTERMEDIO


4to VERSO:
---------

Si hace falta hundir la nariz en el plato
lo vamos a hacer
por los tipos que huelen a tigre
tan soberbios y despiadados


ESTRIBILLO:
----------   RE    DO                  SOL
                   violencia es mentir

SOLO DE GUITARRA y FINAL
---------------------------

 guitarra 1:                sol
e|--------------------------------------------------------||
B|--------------------------------------------------3~--||
G|--------------------------------------------------------|| X4
D|----555--0^3-----555--0^3-----555--0^3-----6^5--3-------||
A|--------------------------------------------------------||
E|--------------------------------------------------------||

guitarra 2:
||--------------------------------------------------------||
||----SOL-----SOL------SOL-----SOL-----SOL-----SOL--------||X4
||--------------------------------------------------------||

bajo:
G|--------------------------------------------------------||
D|--------------------------------------------------0---||X4
A|--------------------------------------------------------||
E|----333--0^1-----333--0^1-----333--0^1-----4^3--1-------||

sigue...
guitarra 1
          FA                SOL                              RE          DO       
e|------------5-----------|-------3-4-3-------------------|-----------|-------------------
B|-------6-8----6~--8-6-|-8~--------6^9--6^8--8-8b~-|-6--5^6--|5---3^0--3/------
G|-5b~------------------|-------------------------------|-----------|-------------------
D|------------------------|-------------------------------|-----------|-------------------
A|------------------------|-------------------------------|-----------|-------------------
E|------------------------|-------------------------------|-----------|-------------------

guitarra 2                                                     RE        do
e|------------------------|-------------------------------|-----------|------------------
B|------------------------|-------------------------------|-----------|------------------
G|-----------FA5----------|----------SOL5-----------------|------5----|-----------------
D|------------------------|-------------------------------|----3---3--|---2---5--------
A|------------------------|-------------------------------|--5--------|-3----------------
E|------------------------|-------------------------------|-----------|------------------
 BAJo:    FA                         Sol                     re           do
G|------------------------|-------------------------------|------5----|-----------------
D|------------------------|-------------------------------|----3---3--|---2----5---------
A|------------------------|-------------------------------|--5--------|-3---------3------
E|-1--1---111---1--1--111-|-3-----3--333----3-----3--333--|-----------|-------------------


------------------------------------------------------

Aca cambia

guitarra 1 :                                   
  Sol                                   [ RE           DO        SOL] X4
e|-----7------------------7-----------||---------5-|-----------|-----------||
B|-/-8---8----8---8-----8---8~--||------6-8--|-5b------|-----------||
G|----------------7-----------7-------||-----------|--------7-5|-7-------||X4
D|------------------------------------||-----------|-----------|-----------||
A|------------------------------------||-----------|-----------|-----------||
E|------------------------------------||-----------|-----------|-----------||

guitarra 2                                [  RE        do         SOL]  X4
e|------------------------------------||----------|-----------|-----------||
B|------------------------------------||----------|-----------|-----------||
G|----------SOL5----------------------||-----5----|-----------|---SOL5----||X4
D|------------------------------------||---3---3--|---2---5-|-----------||
A|------------------------------------||-5--------|-3---------|-----------||
E|------------------------------------||----------|-----------|-----------||

BAJO:                                      [  RE        do         SOL]  X4
G|------------------------------------||------5---|-----------|-----------||
D|------------------------------------||---3---3--|---2----5--|-----------||X4
A|------------------------------------||-5--------|-3--------3|-----------||
E|--3--3---333----3--3---333---3-3--3-||----------|-----------|-3-3---333-||

 
la parte de [RE -DO -SOL] es X 4 nada mas que esa parte

fin..

Fuente original ATAME [www.atame.org]
Colaborador original: GUILLE [elguille665@hotmail.com]

Fuente: tusacordes.com