a b c d e f g h i j k l m n o p q r s t u v w x y z 0-9

Noticias De Ayer

Patricio Rey Y Sus Redonditos De Ricota

			
intro:base+riff.
base:
E---------------------------------------0-1-0-1-
B-----------------------------------------------
G-----------------------------------------------  X2
D---------2-4-2-4-2-4-2---------2-4-2-4---------
A-----------------------------------------------
E-0-0-2-3---------------0-0-2-3-----------------

riff:
E-------------------------------3-3-
B-----------------------------------
G-----------------------------------
D-------2-0---2-0-0-2-2-0---2-0-----  X2
A-----------2-------------2---------
E-3-2-0-----------------------------


           Mi                         Re
No se muy bien sobre que pierna bailo,
             La            Mi     
a veces me agarra, perdi mi cupo para 
            Re              La  
gas nervioso, y noticias piratas.


ESTRIBILLO:
     Mi        Re    Mi        Re4
Noticias de ayer¡Extra, extra!
     Mi        Re    Mi        Re4
noticias de ayer ¡Extra, extra!


          Mi                       Re
Buenos atracos perfectos atentados
          La               Mi
bil iluminados, las monjas verdes 
              Re              La
revolucionarias, para gran consumo.


ESTRIBILLO
solo 1:
    
E-7-6----|-7-6-7-6-----7-6-------------11-11-11--------
B-----7-5|---------7-5-----7-5------------------7-7-7-7
G--------|---------------------------------------------
D--------|---------------------------------------------
A--------|---------------------4h6-4h6-----------------
E--------|---------------------------------------------
     X6
E-------------------------------|
B-9-7-10-10-10-9-7-5-5---5-7-7-5|
G----------------------6--------|

        Mi                             Re
Se desgracio el campeon del hiperfutbol,
                La               Mi 
primero en el ranking, los guerrilleros
              Re               La  
seran saradies, abajo en la tabla.


ESTRIBILLO

       Mi                       Re  
Interminables cadenas de videos, 
            La              Mi
la presion sujetan, buenas noticias 
                  Re               La
sabrosas telefotos, a tragar sin culpa.


ESTRIBILLO

solo 2:
E-7-6-----7-6-----7-6-7-6-----7-6-----9-8-----9-8------
B-----7-5-----7-5---------7-5-----7-5-----9-7-----9-7--

E-9-8-9-8-----9-8-----12-11-------12-11-------12-11-12-
B---------9-7-----9-7-------12-10-------12-10----------

E-11-------12-11-------11-11-11-11-9-9-9-6-6
B----12-10-------12-10-----------------------7-7-7-7-9-

B-7-10-10-10-9-7-5-5---5-7-7-5-|
G--------------------6---------|

         Mi                       Re 
Rock maravilla para todo el mundo
                La               Mi
que gozen los ratones, bandas derbiches
                   Re                  La
perfectos escabeches, mostrando sus trucos.

ESTRIBILLO

solo 3:
E-7-6----|-7-6-7-6-----7-6-----9-8-----9-8-----9-8-9-8-
B-----7-5|---------7-5-----7-5-----9-7-----9-7---------
    X6
E-----9-8-----12-11-------------12-14-12-11-------11-11
B-9-7-----9-7-------12-10-10-12-------------12-10------

E-11-11-11-9-9-9-6-6
B--------------------7-7-7-9-7-10-10-9-7-5-5---5-7-7-5|
G--------------------------------------------6--------|


AGUANTE MENDOZA, LOS REDONDOS Y LA BERSUIT CARAJO!!!

Fuente original ATAME [www.atame.org]
Colaborador original: Matias rey [maty1234@hotmail.com]

Fuente: tusacordes.com