a b c d e f g h i j k l m n o p q r s t u v w x y z 0-9

Negrita

Patricio Rey Y Sus Redonditos De Ricota

			
INTRO

Riff 1
e---2-----------3-------3-----3
B-----3---------------3---3----
G-------2-----0-----0-------0--  X2
D-0---------2------------------
A---------3--------------------
E-----------------3------------

Riff 2
e---2-------------------3---------3-------------------3-
B-----3---------3-----3---3---------2---------3-----3---
G-------2-----0-----0-------0---------3-----0-----0-----
D-0---------2-----------------0-0---------2-------------
A---------3-----------------------------3---------------
E-----------------3-----------------------------3-------

Riff 2
Negrita yace asustada, 
La hormiga se le durmi˛.
Riff 2
Dios ya no quiere que baile me dijo, 
Me dijo y me sofoc˛.

D       C         G 
Vamos negrita, baila hasta el fin.
Vamos negrita, hacelo por mi.
Vamos negrita, baila hasta el fin.
Vamos negrita, hacelo por mi.

Riff 2
La curva no se ha mojado,
Ni patino mi animal.
Riff 2
Morena vi tu camisa colgada,
Secando y arrebatŔ.

Vamos negrita...

Solo:Acordes
A-G-A-G-D-C-G-C-D-C-G-A

Vamos negrita...

Riff 2
Fuera pechito da˝ino,
Milagro te hara cambiar.
Riff 2
Un dedalito de ca˝a soplada
Y este ritmo sumbador.

Vamos negrita...

Riff 2
Tum Tum te agita morena,
Tu cuerpo se impacient˛.
Riff 2
Dios ya no me aguanta quieta me dijo
Corre, corrida, apuro.
 
Vamos negrita...
Vamos negrita...

Fuente original ATAME [www.atame.org]
Colaborador original: Bruno [kola_itc@hotmail.com]

Fuente: tusacordes.com