a b c d e f g h i j k l m n o p q r s t u v w x y z 0-9

Nadie Es Perfecto

Patricio Rey Y Sus Redonditos De Ricota

			
Comienza con un riff de guitarra una vuelta

enganche antes de que empiece la bata
g|-------
d|-------
a|-2345--
e|-------

intro y versos Base: A, E ,D, A
g|-------------------------------------
d|-----2-43-----------------------2-42-
a|-0-4---------2-43-5-3-2-----0-4------
e|---------0-4------------345----------

coros
g|-------------------------
d|--------------2-44-55----
a|-555-5320-0-4------------ x2
e|-------------------------

g|---------------------2----------
d|-----------------2-2---22222----
a|-555-53200----2-2---------------
e|-----------2-2------------------

solo base: c, f, g, c
es muy rapido, sino toquen la tonica

g|-------32------------------
d|---2-5---5-----5-32-33333--
a|--3-3-----23-5-------------
e|---------------------------

g|---------------------
d|-0-1-2-333-1-0-------
a|--------------1-33--- x2
e|---------------------

g|-------------------------------------------
d|-0-1-2-333-1-0-----------------------------
a|---------------1-3-2-1-00-55-33---3--------
e|--------------------------------33--333333-

final nunca nunca nada...
g|-----------------------
d|----222---222---222----
a|-222---222---222---2---
e|-----------------------

y luego de la escala de gutarra
termina en y hacelo como en A5
g|-14----
d|-14----
a|-12----
e|-------

bueno, el tema es muy dificil de sacar
tocalo bien rapido.
Esta tab si esta bien no como
la otra que es un desastre.

Fuente original ATAME [www.atame.org]
Colaborador original: Bruno Sabetta [bruno_acdc@hotmail.com]

Fuente: tusacordes.com