a b c d e f g h i j k l m n o p q r s t u v w x y z 0-9

Nadie Es Perfecto

Patricio Rey Y Sus Redonditos De Ricota

			
.... me falta el tab del bajo... mandenmelo a elguille665@hotmail.com
mandenme tabs de los redondos sobre todo los solos y los riff´s asi los 
saco a todos bien completos ,,,
elguille665@hotmail.com


INTRO :Riff´s 



Skay Beilinson  Guitarra
    LA                MI             RE           LA
E|-----------------|---------------|----3-3-2-|------------------|
B|-----------------|---------------|-3--3-3-3-|------------------|
G|-----------------|---------------|-2--2-2-2-|--------------2---|X 1
D|-2-2--4-4--2-----|---------------|-0--------|-2-2------2-4-----|
A|-0-0--0-0--0--3-4|-2--2------2-4-|----------|-0-0--3^4---------|
E|-----------------|-0--0--3-4---0-|----------|------------------|

Entra con el BAJO.
   LA                MI               RE          LA
E|-----------------|---------------|----3-3-2-|------------------|
B|-----------------|---------------|-3--3-3-3-|------------------|
G|-----------------|---------------|-2--2-2-2-|--------------2---|X 1
D|-2-2--4-4--2-----|---------------|-0--------|-2-2------2-4-----|
A|-0-0--0-0--0--3-4|-2--2------2-4-|----------|-0-0--3^4---------|
E|-----------------|-0--0--3-4---0-|----------|------------------|

BAJO
    LA               MI              RE          LA
G|-----------------|---------------|----------|------------------|
D|-----------------|---------------|----------|------------------|X1
A|-----------------|---------------|----------|------------------|
E|-----------------|---------------|----------|------------------|


---------------------------------------------------------------------------------

1er VERSO Riff´s


---------------------------------------------------------------------------------

SKAY
   LA                MI               RE          LA*
E|-----------------|---------------|----3-3-2-|--5-6-------------|
B|-----------------|---------------|-3--3-3-3-|--5----7----------|
G|-----------------|---------------|-2--2-2-2-|-------7-5--7-----|
D|-2-2--4-4--2-----|---------------|-0--------|--------------7-|
A|-0-0--0-0--0--3-4|-2--2------2-4-|----------|------------------|
E|-----------------|-0--0--3-4---0-|----------|------------------|

BAJO
    LA               MI              RE          LA
G|-----------------|---------------|----------|------------------|
D|-----------------|---------------|----------|------------------|
A|-----------------|---------------|----------|------------------|
E|-----------------|---------------|----------|------------------|

Y despues

SKAY BEILINSON GUITARRA
   LA                MI               RE          LA**
E|-----------------|---------------|----3-3-2-|------------------|
B|-----------------|---------------|-3--3-3-3-|------------------|
G|-----------------|---------------|-2--2-2-2-|------------------|
D|-2-2--4-4--2-----|---------------|-0--------|-2-2--4-2--2------|
A|-0-0--0-0--0--3-4|-2--2------2-4-|----------|-0-0--0-0--0------|
E|-----------------|-0--0--3-4---0-|----------|------------------|

BAJO
    LA               MI              RE          LA
G|-----------------|---------------|----------|------------------|
D|-----------------|---------------|----------|------------------|
A|-----------------|---------------|----------|------------------|
E|-----------------|---------------|----------|------------------|

CON RIFF´s
     LA               MI            RE                     LA*
    Un tipo especial ese super boca experto del re-mundo actual.
   LA                  MI                     RE                LA**
  quizo ir a New York, quizo ir a las series, quizo deslizar patés.


---------------------------------------------------------------------------------

ESTRIBILLO Riff


---------------------------------------------------------------------------------
SKAY BEILINSON GUITARRA

  LA5          RE          LA5              LA           RE          LA5
E|-----------|-----3-3-2-|-------------|-----------|-----3-3-2-|-------------|----
B|-----------|--3--3-3-3-|-------------|-----------|--3--3-3-3-|-------------|----
G|-----------|--2--2-2-2-|-------------|-----------|--2--2-2-2-|-------------|----
D|-----2-----|--0--------|-2-2--4-2--2-|-----2-----|--0--------|-2-2--4-2--2-|---- 
A|-----0--3-4|-----------|-0-0--0-0--0-|-----0--3-4|-----------|-0-0--0-0--0-|----
E|-----------|-----------|-------------|-----------|-----------|-------------|----

  LA5           RE          LA5       FA#5      SI5    MI5      LA5   MI5
-----------|-----3-3-2-|-------|----------|--------|--------|----|---------------|
-----------|--3--3-3-3-|-------|----------|--------|--------|----|---------------|
-----------|--2--2-2-2-|-------|----------|--------|--------|----|---------------|
-----2-----|--0--------|-2-2-2-|-4--4-4-4-|-4--4-4-|--------|-2-X|---------------|     
-----0--3-4|-----------|-0-0-0-|-4--4-4-4-|-2--2-2-|-2-2--2-|-0-X|-2-2-2-2-2-2--2|   
-----------|-----------|-------|-2--2-2-2-|--------|-0-0--0-|----|-0-0-0-0-0-0--0|

*BAJO Estribillo
  LA           RE          LA               LA           RE          LA 
G|-----------|-----------|-------------|-----------|-----------|-------------|----
D|-----------|-----------|-------------|-----------|-----------|-------------|---- 
A|-----------|-----------|-------------|-----------|-----------|-------------|----
E|-----------|-----------|-------------|-----------|-----------|-------------|----

  LA            RE          LA        FA#       SI     MI       LA    MI 
-----------|-----------|-------|----------|--------|--------|----|---------------|
-----------|-----------|-------|----------|--------|--------|----|---------------|     
-----------|-----------|-------|----------|--------|--------|----|---------------|   
-----------|-----------|-------|----------|--------|--------|----|---------------|


           RE              LA 
 Le hizo ¡crack! ¡crack! el hueso al final ¡que ruido!
 
   RE                   LA
  ¡crack!¡crack!¡crack! hasta astillar...

             RE             LA            FA#5 
    Le hizo ¡crack! ¡crack! el hueso al final

  SIm     MI        LA    MI  
  ¡nunca nada especial!




---------------------------------------------------------------------------------

2do VERSO  Mismos riff que en el primer verso


---------------------------------------------------------------------------------

      LA                MI                    RE                    LA*
      Cañito de metal de acero al cromo-nique toda una oportunidad
   LA                     MI                     RE                LA**
  y a nuestro heroe fiel un ex-pilar de rugby jarabe de la nunca untó.



---------------------------------------------------------------------------------
 
REPITE ESTRIBILLO Riff 

-------------------------------------------------------------------------------


          RE              LA 
 Le hizo ¡crack! ¡crack! el hueso al final ¡que ruido!
 
   RE                   LA
  ¡crack!¡crack!¡crack! hasta astillar...

             RE             LA            FA#5 
    Le hizo ¡crack! ¡crack! el hueso al final

  SIm     MI        LA    MI  
  ¡nunca nada especial!



----------------------------------------------------------------------------------
 
SOLO DE SAXO 

  ----------------------------------------------------------------------------------

* SKAY Beilinson Guitarra

[DO-SOL-FA-DO] X2
  
[FA-DO] X3 

[LA-FA-SOL-DO-SOL]


*Semilla Bucciarelli BAJO   DURANTE EL SOLO DE SAXO Min. 1:00 


G|-------------------------------------------------------------------------------
D|-------------------------------------------------------------------------------
A|-------------------------------------------------------------------------------
E|-------------------------------------------------------------------------------




---------------------------------------------------------------------------------

3er VERSO  (El Bajo hace lo mismo en todos los versos)


---------------------------------------------------------------------------------


SKAY
    LA                MI             RE           LA
E|-----------------|---------------|----3-3-2-|------------------|
B|-----------------|---------------|-3--3-3-3-|------------------|
G|-----------------|---------------|-2--2-2-2-|--------------2---|
D|-2-2--4-4--2-----|---------------|-0--------|-2-2------2-4-----|
A|-0-0--0-0--0--3-4|-2--2------2-4-|----------|-0-0--3^4---------|
E|-----------------|-0--0--3-4---0-|----------|------------------|

SKAY BEILINSON GUITARRA
   LA                MI               RE          LA**
E|-----------------|---------------|----3-3-2-|------------------|
B|-----------------|---------------|-3--3-3-3-|------------------|
G|-----------------|---------------|-2--2-2-2-|------------------|
D|-2-2--4-4--2-----|---------------|-0--------|-2-2--4-2--2------|
A|-0-0--0-0--0--3-4|-2--2------2-4-|----------|-0-0--0-0--0------|
E|-----------------|-0--0--3-4---0-|----------|------------------|


    LA                    MI                    RE                    LA
    Ahora el tipo arropa como un bolchevique, y con la soga al cuello va
  LA              MI                 RE                    LA**
 Un viejo limon le banca la parada, el de bisnees ya no es él


---------------------------------------------------------------------------------

 REPITE ESTRIBILLO Riff

 -------------------------------------------------------------------------------


          RE              LA 
 Le hizo ¡crack! ¡crack! el hueso al final ¡que ruido!
 
   RE                   LA
  ¡crack!¡crack!¡crack! hasta astillar...

             RE             LA            FA#5 
    Le hizo ¡crack! ¡crack! el hueso al final

  SIm     MI        LA    MI  
  ¡nunca nada especial!




---------------------------------------------------------------------------------
 
REPITE 1er VERSO Riff´s


---------------------------------------------------------------------------------


CON RIFF´s
     LA               MI            RE                     LA*
    Un tipo especial ese super boca experto del re-mundo actual.
   LA                  MI                     RE                LA**
  quizo ir a New York, quizo ir a las series, quizo deslizar patés.




---------------------------------------------------------------------------------

ULTIMO ESTRIBILLO Riff 

-------------------------------------------------------------------------------


SKAY BEILINSON GUITARRA

  LA5          RE          LA5              LA           RE          LA5
E|-----------|-----3-3-2-|-------------|-----------|-----3-3-2-|-------------|----
B|-----------|--3--3-3-3-|-------------|-----------|--3--3-3-3-|-------------|----
G|-----------|--2--2-2-2-|-------------|-----------|--2--2-2-2-|-------------|----
D|-----2-----|--0--------|-2-2--4-2--2-|-----2-----|--0--------|-2-2--4-2--2-|---- 
A|-----0--3-4|-----------|-0-0--0-0--0-|-----0--3-4|-----------|-0-0--0-0--0-|----
E|-----------|-----------|-------------|-----------|-----------|-------------|----

  LA5           RE         LA5      FA#5    SIm    MI     SIm    MI    SIm    MI          
-----------|-----3-3-2-|-------|----------|------|------|------|-----|-----|-----|
-----------|--3--3-3-3-|-------|----------|------|------|------|-----|-----|-----|
-----------|--2--2-2-2-|-------|----------|------|------|------|-----|-----|-----|
-----2-----|--0--------|-2-2-2-|-4--4-4-4-|-4--4-|------|-4--4-|-----|-4-4-|-----|   
-----0--3-4|-----------|-0-0-0-|-4--4-4-4-|-2--2-|-2--2-|-2--2-|-2-2-|-2-2-|-2-2-| 
-----------|-----------|-------|-2--2-2-2-|------|-0--0-|------|-0-0-|-----|-0-0-|

SIm         MI
  ¡nunca nunca nada!

   SIm         MI
  ¡nunca nunca nada!

   SIm         MI         LA    fin*
  ¡nunca nunca nada! especial


Y PARA EL FINAL TOCA ESTO...

fin*
E|-----------------------------------------|
B|-----------------------------------------|
G|-2-------------2--5^2--4^2-------------|
D|-2---2-----2-4---------------2-/-19--|
A|-0---0^3^4-------------------0-/-----|
E|-----------------------------------------|

Fuente original ATAME [www.atame.org]
Colaborador original: GUILLERMO [elguille665@hotmail.com]

Fuente: tusacordes.com