a b c d e f g h i j k l m n o p q r s t u v w x y z 0-9

Nadie Es Perfecto

Patricio Rey Y Sus Redonditos De Ricota

A
E
D
Bm
C
G
F
			
 Introducción: [A - E - D - A] X 2  

 E|-------------------------3-3-2--------------|-
 B|-------------------------3-3-3--------------|-
 G|-----------------------2--------------------|-
 D|-2-4-------------------0-------2--------2-4-|-
 A|-0---0-3-4-2------2-4----------0--0-3-4-----|-
 E|-----------0--3-4---------------------------|-

  |-------------------------3-3-2--------------|
  |-------------------------3-3-3--------------|
  |-----------------------2------------------2-|
  |-2-4-------------------0-------2------2-4---|
  |-0---0-3-4-2------2-4----------0--0-4-------|
  |-----------0--3-4---------------------------|


  CON INTRO   
  
    Un tipo especial ese super boca experto del D-mundo actual.
  quizo ir a New York, quizo ir a las series, quizo deslizar patés.


           D              A 
 Le hizo ¡crack! ¡crack! el hueso al final ¡que ruido!
 
   D                   A 
  ¡crack!¡crack!¡crack! hasta astillar...

             D             A            Fa#5 
    Le hizo ¡crack! ¡crack! el hueso al final

  Bm     E        A    E  
  ¡nunca nada especial!



    Cañito de metal de acero al cromo-nique [toda una oportunidad]
  y a nuestro heroe fiel un ex-pilar de rugby jarabe de la nunca untó.

      
    Le hizo ¡crack!...

 
    Solo de saxo: [C-G-F-C]x2
                  [F-C]x3 
                  [A-F-G-C-G]


    Ahora el tipo arropa como un bolchevique, y con la soga al cuello va
 Un viejo limon le banca la parada, el de bisnes ya no es él.

    Le hizo ¡crack!...


    Un tipo especial...



            D              A 
  Le hizo ¡crack! ¡crack! el hueso al final ¡que ruido!
 
   D                   A 
  ¡crack!¡crack!¡crack! hasta astillar...

             D             A            Fa#5 
    Le hizo ¡crack! ¡crack! el hueso al final

   Bm         E 
  ¡nunca nunca nada!

   Bm         E 
  ¡nunca nunca nada!

   Bm         E         A    fin
  ¡nunca nunca nada! especial.


    FIN

 E|------------------------|
 B|------------------------|
 G|---------2-4-4-2---2--2-|
 D|-----2-4---------4----2-|
 A|-2-4------------------0-|
 E|------------------------|



  Aguante el lobo 

Fuente original ATAME [www.atame.org]
Colaborador original: Federico Genoves [lopus_el_lobo@yahoo.com.ar]

Fuente: tusacordes.com