a b c d e f g h i j k l m n o p q r s t u v w x y z 0-9

Musica Para Pastillas

Patricio Rey Y Sus Redonditos De Ricota

			
Intro
G|----------------------------------|x4
D|-------5-55-5---------------------|
A|-5-55-5---------------------------|
E|-------------1-3-4-1-3-4-1--1-3-4-|

 |---------|x3	
 |---------|
 |-3-3-2-3-|
 |---------|

Verso
G|----------------------------------|x4
D|-------5-55-5---------------------|
A|-5-55-5---------------------------|
E|-------------1-3-4-1-3-4-1--1-3-4-|

Coro
G|---------|x3
D|---------|
A|-3-3-2-3-|
E|---------|

Solo de Saxo + Verso
G|----------------------------------|x4
D|-------5-55-5---------------------|
A|-5-55-5---------------------------|
E|-------------1-3-4-1-3-4-1--1-3-4-|

Coro
G|---------|x3
D|---------|
A|-3-3-2-3-|
E|---------|

Solo de Guitarra
G|----------------------------------|x4
D|----------------------------------|
A|-7-77-7h6p5-55-5h4p2-22-2-3333-55-|
E|----------------------------------|

Solo de Saxo + Verso
G|----------------------------------|x4
D|-------5-55-5---------------------|
A|-5-55-5---------------------------|
E|-------------1-3-4-1-3-4-1--1-3-4-|

Coro
G|---------|x3
D|---------|
A|-3-3-2-3-|
E|---------|

Final
G|----------------------------------|x4
D|-------5-55-5---------------------|
A|-5-55-5---------------------------|
E|-------------1-3-4-1-3-4-1--1-3-4-|

Escuchá la canción para saber el ritmo

Fuente original ATAME [www.atame.org]
Colaborador original: Sebastián Vidondo [rojoamargodelsiglo@yahoo.com.ar]

Fuente: tusacordes.com