a b c d e f g h i j k l m n o p q r s t u v w x y z 0-9

Murga De La Virgencita

Patricio Rey Y Sus Redonditos De Ricota

			
Intro:
Guitarra 1:      MI           SOL
E|-------------------------------------------------------------|
b|-------------------------------------------------------------|
G|--------------9-9-9------------------------------------------|X4
D|--9-----------9-9-9--9-------------------12-12-12-12--/------|
A|--7--7-7-7-7--7-7-7--7-/-10-10-10-10-10--10-10-10-10--/------|
E|-------------------------------------------------------------|
PM     .......                ...........

y sigue asi

Guitarra 1:   MI                 SOL
E|-----------------------------|-------------------------------|
b|-----------------------------|-------------------------------|
G|----9----9---9----9---9--9-/-|----12---12--12---12--12--12---|X2
D|----9----9---9----9---9--9-/-|----12---12--12---12--12--12---|
A|--7----7---7----7---7----7-/-|--10---10--10---10--10----10/--|
E|-----------------------------|-------------------------------|

Guitarra 2:
e|-----------------------------|-------------------------------|
B|---12---12--12---12---12-----|----15---15--15---15--15-------|
G|--9----9---9----9---9----9-/-|--12---12--12---12--12----12/--|X2
D|-----------------------------|-------------------------------|
A|-----------------------------|-------------------------------|
E|-----------------------------|-------------------------------|

BAJO:  MI                         SOL
G|-----------------------------|-------------------------------|
D|-----------------------------|-------------------------------|X2
A|-----------------------------|------------------2--5---2-----|
E|--0----0-0--0----------------|---3---3-3---3-----------------|


VERSO 1:

Guitarra 1:   MI                 SOL
E|-----------------------------|-------------------------------|
b|-----------------------------|-------------------------------|
G|----9----9---9----9---9--9-/-|----12---12--12---12--12--12---|X4
D|----9----9---9----9---9--9-/-|----12---12--12---12--12--12---|
A|--7----7---7----7---7----7-/-|--10---10--10---10--10----10/--|
E|-----------------------------|-------------------------------|

Guitarra 2:
e|-----------------------------|-------------------------------|
B|---12---12--12---12---12-----|----15---15--15---15--15-------|
G|--9----9---9----9---9----9-/-|--12---12--12---12--12----12/--|X4
D|-----------------------------|-------------------------------|
A|-----------------------------|-------------------------------|
E|-----------------------------|-------------------------------|

BAJO:  MI                         SOL
G|-----------------------------|-------------------------------|
D|-----------------------------|-------------------------------|X4
A|-----------------------------|------------------2--5-p-2-----|
E|--0----0-0--0----------------|---3---3-3---3-----------------|


mi              SOL                 MI
Marita lo hace por la guita
                SOL                MI
Con los bomberos del cuartel.
                 SOL                 MI
Su barrio es tan inclemente
                SOL                      
Y su comparsa siempre es cruel.


ESTRIBILLO 1:

GUITARRA 1:    [DO5-DO5-DO5-DO5]   [MI-SOL] X2
                                       __________________X2__________________
GUITARRA 2:                           |    MI                SOL             |
E|----------------|---------------|--|-----------------|----------------------|
b|----------------|---------------|--|-----------------|----------------------|
G|----------------|---------------|X2|-----------------|---7---7---7---7-7----|
D|-5-5-5-5-5-5-5-5|5-5-5-5-5-5-5-5|--|-9-9-9-9-9-9-9-9-|-5---5---5---5--------|
A|-3-3-3-3-3-3-3-3|3-3-3-3-3-3-3-3|--|-7-7-7-7-7-7-7-7-|----------------------|
E|----------------|---------------|--|-----------------|----------------------|

BAJO:                                 __________________X2__________________
G|----------------|---------------|--|-----------------|---------------------|
D|----------------|---------------|X2|-----------------|---------------------|
A|-3-3-3-3-3-3-3-3|3-3-3-3-3-3-3-3|--|-----------------|---------------------|
E|----------------|---------------|--|-0-0-0-0-0-0-0-0-|-3-3-3-3-3-3-3-3-3-3-|


DO
Sueña con que su rollo sea
                              MI             Sol       
Película de amores suaves.   ah ah ah ah  eh eh eh eh .....X2


VERSO 2: igual

La murga de la virgencita
Es aguijón picante y miel.
Se tambalea en sus tacones,
No tiene nada que perder.


ESTRIBILLO 2: Igual
DO
Nunca pudo comer del queso            MI             Sol     
Sin que la trapera la aplaste.  ah ah ah ah  eh eh eh eh .....X2


VERSO 3:

E5       E5VII           E5       E5VII       
          Los coches van y vienen.
E5       E5VII    E5       E5VII 
          Y su ilusión fulana

LA*                       
Se empolva la nariz
Muerde el labio y va otra vez


E5       E5VII    E5       E5VII
para ahogar arcadas gusto a menta
E5       E5VII        E5       E5VII
      Junto con sus bostezos.

LA*                          
Sus chulos son legión
De "cucharangos" que hacen temblar


E5       E5VII        E5       E5VII
        De miedo su boquita.
E5       E5VII      E5       E5VII
         Ay, ay, mi virgencita. 

GUITARRA 1:            ________X2_______
   E5     E5VII     |       LA*       |
E|---------------|--|--------------------||       e|---------------|
b|---------------|--|--------------------||       b|---------------|
G|---------9---|X4|-9-9-9-9-9-9-9-9--x-||X2     G|---------9---|X4
D|---------9-/-|--|-7-7-7-7-7-7-7-7--x-||       D|---------9-/-|
A|--2----7-/-|--|-0-0-0-0-0-0-0-0----||       A|--2----7---|
E|--0----------|--|--------------------||       E|--0----------|

BAJO:
G|---------------|--|--------------------||       G|---------------|
D|---------------|X4|--------------------||X2     D|---------------|
A|---------7---|--|-0-0-0-0-0-0-0-0----||       A|---------7---|X4
E|--0----------|--|--------------------||       E|--0----------|


INTERMEDIO:
GUITARRA:            violin           guitarra           violin         Guitarra        violin
e|-----------------|---------------|------------------|-------------|---------------|-----------|
b|-5p0-5-4-----5-4-|---------------|-5p0-5-4-----5-4--|-------------|8p7-7-8---8~-7-|-----------|
G|---------0h4-----|---------------|---------0h4------|-------------|--------8------|---------8~|
D|-----------------|---------------|------------------|---------7-|---------------|7-7-9-10---|
A|-----------------|-7-7-9-10------|------------------|-----7-9-----|---------------|-----------|
E|-----------------|----------8~-|------------------|-8-8---------|---------------|-----------|
   Guitarra         violin         guitarra
e|----------------|--------------|-------------------------------||
b|-8p7-7-8---8~-7-|-7-7----------|-------------------------------||
G|---------8------|-----8---5~-|---------9------------9----||
D|----------------|-------7------|---------9------------9----||
A|----------------|--------------|--2----7-----2----7----||
E|----------------|--------------|--0------------0-----------||

BAJO:
G|------|-----------|------|-----------|-----|-------|-----|--------|-------------------|
D|--#---|-----------|--#---|-----------|--#--|-------|--#--|--------|-------------------|
A|------|-----------|------|-3--3--|-----|-------|-----|--------|-----7-------7-|
E|------|---0--0--|------|-----------|-----|-5--5--|-----|-7--7---|-0-------0-----|



VERSO 5: Violin (FA#- MI)
          
FA#
 Se maquilla la piel
Para el túnel de amor y también
MI
Para su tren fantasma
Con la boquita seca.
FA#
Será el propio buen dios 
Quien toca así el tambor 
    
   __________X4__________     __________X4_________    ___________X4______________    
  |      FA#             |   |    MI               |  |        FA#                | 
e|-------------------------|------------------------|-------------------------------|
b|14-14-14-14-14-14-14-14--|-11-11-11-11-11-11-11-11|--14-14-14-14-14-14-14-14-14---|
G|11-11-11-11-11-11-11-11--|-9--9--9--9--9--9--9--9-|--11-11-11-11-11-11-11-11-11---|
D|-------------------------|------------------------|-------------------------------|
A|-------------------------|------------------------|-------------------------------|
E|-------------------------|------------------------|-------------------------------|
 PM apagado.....................................................................


VERSO 6:


E5       E5VII        E5       E5VII
Y que ahuyenta su clientela
E5       E5VII        E5       E5VII
Y la aflije con tristezas.

Guitarra 2:
e|-----------------------------|-------------------------------|
B|---12---12--12---12---12-----|----15---15--15---15--15-------|
G|--9----9---9----9---9----9-/-|--12---12--12---12--12----12/--|X2
D|-----------------------------|-------------------------------|
A|-----------------------------|-------------------------------|
E|-----------------------------|-------------------------------|


ESTRIBILLO 3 Igual

DO
Pilchitas de poliéster
                              MI          SOL
Y santidad de virgen.   ah ah ah ah  eh eh eh eh .....X2


VERSO 7: Igual

MI         SOL                     MI
Milagro más, milagro menos.
                SOL
 Otra polilla en busca de la luz


ESTRIBILLO 4 Igual


DO
La murga de la virgencita
               
Que no quiere besar a nadie

    MI          SOL
   ah ah ah ah  eh eh eh eh .....
    MI          SOL
   ah ah ah ah  eh eh eh eh .....

    MI          SOL
   ah ah ah ah  eh eh eh eh .....
    MI          SOL
   ah ah ah ah  eh eh eh eh .....
   MI          SOL
   ah ah ah ah  eh eh eh eh .....
    MI          SOL
   ah ah ah ah  eh eh eh eh .....

FADE OUT...

Fuente original ATAME [www.atame.org]
Colaborador original: Guille [elguille665@hotmail.com]

Fuente: tusacordes.com