a b c d e f g h i j k l m n o p q r s t u v w x y z 0-9

Murga De La Virgencita

Patricio Rey Y Sus Redonditos De Ricota

			
La murga de la virgencita

Intro

 Guitarra 1

e|----------------------------------------|          
b|----------------------------------------|          |
g|----------------------------------------|          |
d|-/9-9-9-9--9-9-9-9-9/12-12-12--12-12-12-|          |
a|-/7-7-7-7--7-7-7-7-7/10-10-10--10-10-10-|          |
e|----------------------------------------|          |  5 veces
                                                     |
                                                     |
e|----------------------------------------------|    |
b|----------------------------------------------|    |
g|----------------------------------------------|    |    
d|-12/9--9-9-9--9-9-9-9-9/12-12-12--12-12-12-12-|    |
a|-10/7--7-7-7--7-7-7-7-7/10-10-10--10-10-10-10-|    |
e|----------------------------------------------|    /
 

  Guitarra 2

e|-7 / esta nota debe rasguearse rapido hasta que --10 /                    -|
b|-8 | llegue el tiempo del cambio de nota, que es|--12 | idem nota anterior |-|
g|-9  el mismo que en la intro de la guitarra 1  /--12                     /-| 2 veces
d|-----------------------------------------------------------------------------|
a|-----------------------------------------------------------------------------|
e|-----------------------------------------------------------------------------|

 Las dos ultimas vueltas de la guitarra 1 va junto con la guitarra 2

 Las estrofas pueden llevar cualquiera de las dos bases,
 tanto la de la guitarra 1 como la de la guitarra 2, pero igual
 paso las notas de las estrofas.

 
 Mi-                   Sol                   El rasguido tiene que
 Marita lo hace por guita                    ser rapido y siguiendo
                                             bien el ritmo del tema,
 con los bomberos del cuartel                el rasguido clasico de 
 Su barrio es tan enclemente                 rock queda muy bien. 
                                   
 y su comparsa siempre es cruel.
 
Do
 Sueña con que su rollo sea
 películas de amores suaves.
 
 Mi-         Sol
 AAAAAHH EEEEH

 Mi-                    Sol
 La murga de la virgencita
 es aguijón picante y miel
 Se tambalea en sus tacones
 no tiene nada que perder...
 
 Do
 Nunca pudo comer del queso
 sin que la trampera la aplaste              
                                             
 Mi- 
 Los coches van y vienen                      
 su ilusión fulana                           
 Mi 5 VII
 se empolva la nariz                           
 muerde el labio y va otra vez
              Mi-
 para ahogar arcadas gusto a menta
 
 junto con sus bostezos
 
 Mi 5 VII
 Sus chulos son legión
 de cucharangos que hacen temblar
 Mi-
 de miedo su boquita
 Ay! ay! mi virgencita!
 
 INTERMEDIO 
e|-------------------------------------------------------------
b|-5-4-5-4-5-4-5-4----------------5-4-5-4-5-4-5-4--------------
g|----------------------------------------------------------2--
d|-----------------------2-3----------------------------2-3----
a|-----------------5-5-5--------------------------5-5-5--------
e|---------------------------5---------------------------------


e|-----------------------------------------------------------------|
b|-8-7-8-7-8-7-8-7----------4---8-7-8-7-8-7-8-7--------------------|
g|-----------------/5-2-------------------------/9-7---------------|
d|----------------------5-3--------------------------10-9-7--------|
a|----------------------------------------------------------10-9-7-|
e|-----------------------------------------------------------------|

 Mi-

 Mi5 VII
 Se maquilla la piel
 para el Túnel de amor
           Mi-
 y también para su Tren fantasma
 con la boquita seca
 Mi5 VII
 Será el propio buen Dios
 quién toca así el tambor
       Mi-
 y que ahuyenta su clientela
 y la aflije con tristezas.
 
 Do
 Pilchitas de poliester
 mi santidad de virgen.

 Mi-                   Sol
 Milagro más milagro menos
 otra polilla en busca de la luz
 La murga de esa virgencita
 que no quiere besar a nadie. 

 Final
 Mi-   Sol } unas cuantas veces


 Cualquier duda, correcion sera bienvenida, no me enojo 
 o duda, o cualquier otra cosa canciones, etc... 
 mandenme un mail a Fedematiz@yahoo.com.ar

Fuente original ATAME [www.atame.org]
Colaborador original: Federico Rodriguez Matiz [fedematiz@yahoo.com.ar]

Fuente: tusacordes.com