a b c d e f g h i j k l m n o p q r s t u v w x y z 0-9

Motorpsico

Patricio Rey Y Sus Redonditos De Ricota

			
intro y base:

  Dm       Bb          Dm              Bb              Dm
|---------------------------------------------------------|
|---------------------------------------------------------|
|---------------------------------------------2-0---------|
|-0-2-0-2-3-------------0-----0-2-0-2-3------------3-0----|
|-----------1---1-3-1-3-----------------1---1-------------| x2
|---------------------------------------------------------|

            C           Bb         C              Dm
|---------------------------------------------------------|
|---------------------------------------------------------|
|---2-0-2--------0---0-------------0----------------------|
|-0----------------3---------3-2-0---3-2-0---0------------|
|----------3---3--------1------------------4--------------| x2
|---------------------------------------------------------|

 Solo de guitarra:
|-1--1-1-0----1-3-5-3-5-6-8----1-1-1-0--1-3-5-3-----------|
|-3--3-3-1----3-5-6-5-6-8-10---3-3-3-1--3-5-6-5--5---6----|
|------------------------------------------------5-5-7----|
|--------------------------------------------------7------|
|---------------------------------------------------------| x2
|---------------------------------------------------------|

Fuente: tusacordes.com