a b c d e f g h i j k l m n o p q r s t u v w x y z 0-9

Motorpsico

Patricio Rey Y Sus Redonditos De Ricota

			
MOTORPSICO.
Intro:
Guitarra 1:
    rem         Sib            REm          SIb
E|-----------|-------------|----------------|-------------||
B|-----------|-------------|----------------|-------------||
G|-----------|-------------|----------------|---2-0-------||
D|-0-2-0-2-3-|-----------0-|-0-2-0-2-3------|-------3-0---||X2
A|-----------|1-1-3-1-3----|------------1---|1------------||
E|-----------|-------------|----------------|-------------||

Guitarra2:        SIb          REm             Sib  *                  
E|-----------|--6-6----------|-1-1-----------|-6-6-6-----------|                         |
B|-----------|--6-6----------|-3-3-----------|-6-6-6-----------|                         |
G|----?------|--0-0-xxxx-xxxx|-2-2--xxxx-xxxx|-------xxxx-xxxx-| REm - Sib * - Rem - Sib |
D|-----------|------xxxx-xxxx|-0-0--xxxx-xxxx|-------xxxx-xxxx-|                         |
A|-----------|---------------|---------------|-----------------|                         |
E|-----------|---------------|---------------|-----------------|                         |

BAJO:            Sib           RE               SIb
G|-----------|---------------|---------------|---------|  
D|-----------|---------------|---------------|---------|  RE - Sib  - Re - Sib               
A|----?------|1---1/---------|-5--5---5/-----|1--1/----|                         
E|-----------|---------------|---------------|---------| 


Sigue asi...

Guitarra 1:
    REm           DO       SIb
E|-------------|--------|-----------------------------||
B|-------------|--------|-----------------------------||
G|-------------|--------|-----------------------------|| X2
D|---7-5-7-----|--5-3-5-|--------3-2-0--5-3-2--0------||
A|-5-------3---|3-------|-1----1-----------------3-5--||
E|-------------|--------|-----------------------------||

Guitarra 2
              do             sib         do           re 
E|----------8|--------|---6-------|--8-------|--10||
B|----------8--|--------|---6---------|--8---------|10----||
G|-------------|--------|-------------|------------|------||
D|-------------|--------|-------------|------------|------||x2
A|-------------|--------|-------------|------------|------||
E|-------------|--------|-------------|------------|------||

BAJO:  RE        DO       SIb         DO   SIb  RE
G|------------|---------|-----------------------------||
D|------------|---------|-----------------------------||x2
A|-5-5555-----|-3-3333--|-1---1--3----333-1-----5-----||
E|------------|---------|-----------------------------||


VERSO 1: 

Guitarra 1:
    rem         Sib            REm          SIb
E|-----------|-------------|----------------|-------------||
B|-----------|-------------|----------------|-------------||
G|-----------|-------------|----------------|---2-0-------||
D|-0-2-0-2-3-|-----------0-|-0-2-0-2-3------|-------3-0---||X2
A|-----------|1-1-3-1-3----|------------1---|1------------||
E|-----------|-------------|----------------|-------------||

Guitarra2:        SIb          REm             Sib  *                  
E|-----------|--6-6----------|-1-1-----------|-6-6-6-----------|                         |
B|-----------|--6-6----------|-3-3-----------|-6-6-6-----------|                         |
G|----?------|--0-0-xxxx-xxxx|-2-2--xxxx-xxxx|-------xxxx-xxxx-| REm - Sib * - Rem - Sib |
D|-----------|------xxxx-xxxx|-0-0--xxxx-xxxx|-------xxxx-xxxx-|                         |
A|-----------|---------------|---------------|-----------------|                         |
E|-----------|---------------|---------------|-----------------|                         |

BAJO:            Sib           RE               SIb
G|-----------|---------------|---------------|---------|  
D|-----------|---------------|---------------|---------|  X2          
A|----5--5-/-|1-1----1/------|-5--5---5/-----|1-1---1/-|                         
E|-----------|---------------|---------------|---------| 




Sib               Rem         Sib           REm
Siempre tengo a mi lado mi dios así me das más ...
SIb         REm          SIb           REm
Un susurro muy especial ... así me das más ...


ESTRIBILLO 1:

Guitarra 1:
    REm           DO       SIb
E|-------------|--------|-----------------------------||
B|-------------|--------|-----------------------------||
G|-------------|--------|-----------------------------|| X2
D|---7-5-7-----|--5-3-5-|--------3-2-0--5-3-2--0------||
A|-5-------3---|3-------|-1----1-----------------3-5--||
E|-------------|--------|-----------------------------||

Guitarra 2
              do             sib         do           re 
E|----------8|--------|---6-------|--8-------|--10||
B|----------8--|--------|---6---------|--8---------|10----||
G|-------------|--------|-------------|------------|------||
D|-------------|--------|-------------|------------|------||x2
A|-------------|--------|-------------|------------|------||
E|-------------|--------|-------------|------------|------||

BAJO:  RE        DO       SIb         DO   SIb  RE
G|------------|---------|-----------------------------||
D|------------|---------|-----------------------------||x2
A|-5-5555-----|-3-3333--|-1---1--3----333-1-----5-----||
E|------------|---------|-----------------------------||


LETRA:

      "Motorpsico, el mercado de todo amor.
      Lo que debes, como puedes quedártelo."


VERSO 2: Igual

Junto a la hemoglobina me fui ya no sangro más.
De la nada a la gloria me voy así me das más ...


ESTRIBILLO 2:igual

Motorpsico: el mercado de todo amor.
Lo que debes, como puedes quedártelo


PUENTE : Punteo

Guitarra 1:

e|-----------------|-----------------5-|---------------------------|--|-------------------------|
B|-----------------|-----5-6-5---6-8---|---------------5-6-5-------|--|-------------------------|
G|-7--7--7--7--7---|-5-7---------------|-7-7-7-7-7-5-7-------5---7-|--|-9h10p9h10p9h10p9h10p9..-|
D|-----------------|-------------------|-----------------------7---|X2|-------------------------|
A|-----------------|-------------------|---------------------------|--|-------------------------|
E|-----------------|-------------------|---------------------------|--|-------------------------|

GUITARRA 2:
e|-----------------|-------------------|-------------------------------|--|
B|-----------------|-----------------10|-------------------------------|--|
G|-----------------|-----9-10-9-10-12--|-----------------9-10-9--------|--|
D|-12-12-12-12-12--|10-12--------------|1212121212-10-12-------10--12--|--|
A|-----------------|-------------------|-------------------------12----|X2|
E|-----------------|-------------------|-------------------------------|--|


BAJO:
G|-----------------|-------------------|---------------|------------|-----------||
D|-----------------|-------------------|---------------|------------|-----------||
A|-----------------|-------------5-----|-5--------7--5-|-5-------5--|-5-----7-5-||
E|-----------------|-8---6---5---------|----8--6-------|---8-6-5----|---8-6-----||


SOLO DE SAXO:

Guitarra 1:
    REm           DO       SIb
E|-------------|--------|-----------------------------||
B|-------------|--------|-----------------------------||
G|-------------|--------|-----------------------------|| X2
D|---7-5-7-----|--5-3-5-|--------3-2-0--5-3-2--0------||
A|-5-------3---|3-------|-1----1-----------------3-5--||
E|-------------|--------|-----------------------------||

Guitarra 2
              do             sib         do           re 
E|----------8|--------|---6-------|--8-------|--10||
B|----------8--|--------|---6---------|--8---------|10----||
G|-------------|--------|-------------|------------|------||
D|-------------|--------|-------------|------------|------||x2
A|-------------|--------|-------------|------------|------||
E|-------------|--------|-------------|------------|------||

BAJO:  RE        DO       SIb         DO   SIb  RE
G|------------|---------|-----------------------------||
D|------------|---------|-----------------------------||x2
A|-5-5555-----|-3-3333--|-1---1--3----333-1-----5-----||
E|------------|---------|-----------------------------||


VERSO 3:igual

Estoy fichando de acuerdo al dolor
jugando de más....
Mi dios no juega dados, quizás...
...esté a mi favor    


ESTRIBILLO 3:igual

"Motor psico": el mercado de todo amor
Lo que debes, cómo puedes quedártelo.


PUENTE:igual

Guitarra 1:
e|-----------------|-----------------5-|---------------------------|--|-------------------------|
B|-----------------|-----5-6-5---6-8---|---------------5-6-5-------|--|-------------------------|
G|-7--7--7--7--7---|-5-7---------------|-7-7-7-7-7-5-7-------5---7-|--|-9h10p9h10p9h10p9h10p9..-|
D|-----------------|-------------------|-----------------------7---|X2|-------------------------|
A|-----------------|-------------------|---------------------------|--|-------------------------|
E|-----------------|-------------------|---------------------------|--|-------------------------|

GUITARRA 2:
e|-----------------|-------------------|-------------------------------|--|
B|-----------------|-----------------10|-------------------------------|--|
G|-----------------|-----9-10-9-10-12--|-----------------9-10-9--------|--|
D|-12-12-12-12-12--|10-12--------------|1212121212-10-12-------10--12--|--|
A|-----------------|-------------------|-------------------------12----|X2|
E|-----------------|-------------------|-------------------------------|--|


BAJO:
G|-----------------|-------------------|---------------|------------|-----------||
D|-----------------|-------------------|---------------|------------|-----------||
A|-----------------|-------------5-----|-5--------7--5-|-5-------5--|-5-----7-5-||
E|-----------------|-8---6---5---------|----8--6-------|---8-6-5----|---8-6-----||


SOLO DE SAXO:

Guitarra 1:
    REm           DO       SIb
E|-------------|--------|-----------------------------||
B|-------------|--------|-----------------------------||
G|-------------|--------|-----------------------------|| X2
D|---7-5-7-----|--5-3-5-|--------3-2-0--5-3-2--0------||
A|-5-------3---|3-------|-1----1-----------------3-5--||
E|-------------|--------|-----------------------------||

Guitarra 2
              do             sib         do           re 
E|----------8|--------|---6-------|--8-------|--10||
B|----------8--|--------|---6---------|--8---------|10----||
G|-------------|--------|-------------|------------|------||
D|-------------|--------|-------------|------------|------||x2
A|-------------|--------|-------------|------------|------||
E|-------------|--------|-------------|------------|------||

BAJO:  RE        DO       SIb         DO   SIb  RE
G|------------|---------|-----------------------------||
D|------------|---------|-----------------------------||x2
A|-5-5555-----|-3-3333--|-1---1--3----333-1-----5-----||
E|------------|---------|-----------------------------||


VERSO 4:igual

Sib               Rem         Sib           REm
Siempre tengo a mi lado mi dios así me das más ...
SIb         REm          SIb           REm
Un susurro muy especial ... así me das más ...


ESTRIBILLO 4: igual

"Motor psico": el mercado de todo amor
Lo que debes, cómo puedes quedártelo.


PUENTE Y SOLO DE SAXO Final

Guitarra 1:
e|-----------------|-----------------5-|---------------------------|--|
B|-----------------|-----5-6-5---6-8---|---------------5-6-5-------|--|
G|-7--7--7--7--7---|-5-7---------------|-7-7-7-7-7-5-7-------5---7-|--|
D|-----------------|-------------------|-----------------------7---|X4|
A|-----------------|-------------------|---------------------------|--|
E|-----------------|-------------------|---------------------------|--|

GUITARRA 2:
e|-----------------|-------------------|-------------------------------|--|
B|-----------------|-----------------10|-------------------------------|--|
G|-----------------|-----9-10-9-10-12--|-----------------9-10-9--------|--|
D|-12-12-12-12-12--|10-12--------------|1212121212-10-12-------10--12--|x4|
A|-----------------|-------------------|-------------------------12----|--|
E|-----------------|-------------------|-------------------------------|--|

BAJO: igual que puente....

fin.

Fuente original ATAME [www.atame.org]
Colaborador original: Guille [elguille665@hotmail.com]

Fuente: tusacordes.com