a b c d e f g h i j k l m n o p q r s t u v w x y z 0-9

Motorpsico

Patricio Rey Y Sus Redonditos De Ricota

			
Intro
G|---------------------------------------|
D|---------------------------------------|
A|------5--55------5-55------5--55-----5-|
E|-5--5-------5--5------5--5-------5-5---|

 |--------------------------|x2
 |--------------------------|
 |-33-------3---3--3--3---5-|
 |----5--55-------------5---|

Verso
G|-------------|x4
D|-------------|
A|-55-------5--|
E|----5---5----|

Coro
G|--------------------------|x2
D|--------------------------|
A|-33-------3---3--3--3---5-|
E|----5--55-------------5---|

Verso
G|-------------|x4
D|-------------|
A|-55-------5--|
E|----5---5----|

Coro
G|--------------------------|x2
D|--------------------------|
A|-33-------3---3--3--3---5-|
E|----5--55-------------5---|

Puente
**Acá, solo hace partes, pero igual lo paso todo**
G|-----------------------3-------------------------|x2
D|------------3-4-3--4-6---------------3-4-3-------|
A|-55555-3-5-----------------55555-3-5-------3---5-|
E|---------------------------------------------5---|

Solo de Saxo
G|--------------------------|x2
D|--------------------------|
A|-33-------3---3--3--3---5-|
E|----5--55-------------5---|

Verso
G|-------------|x4
D|-------------|
A|-55-------5--|
E|----5---5----|

Coro
G|--------------------------|x2
D|--------------------------|
A|-33-------3---3--3--3---5-|
E|----5--55-------------5---|

Puente
**Acá, solo hace partes, pero igual lo paso todo**
G|-----------------------3-------------------------|x2
D|------------3-4-3--4-6---------------3-4-3-------|
A|-55555-3-5-----------------55555-3-5-------3---5-|
E|---------------------------------------------5---|

Solo de Saxo
G|--------------------------|x2
D|--------------------------|
A|-33-------3---3--3--3---5-|
E|----5--55-------------5---|

Verso
G|-------------|x4
D|-------------|
A|-55-------5--|
E|----5---5----|

Coro
G|--------------------------|x2
D|--------------------------|
A|-33-------3---3--3--3---5-|
E|----5--55-------------5---|

Puente Final
**Acá, solo hace partes, pero igual lo paso todo**
G|-----------------------3-------------------------|x4
D|------------3-4-3--4-6---------------3-4-3-------|
A|-55555-3-5-----------------55555-3-5-------3---5-|
E|---------------------------------------------5---|

Escuchá la canción para saber el ritmo

Fuente original ATAME [www.atame.org]
Colaborador original: Sebastián Vidondo [rojoamargodelsiglo@yahoo.com.ar]

Fuente: tusacordes.com