a b c d e f g h i j k l m n o p q r s t u v w x y z 0-9

Motor Psico

Patricio Rey Y Sus Redonditos De Ricota

			
|--------------------------------------------|
|--------------------------------------------| Riff 1
|-------------------------------------2-0----|
|-0-2-0-2-3----------0---0-2-0-2-3-------3-0-| 
|----------1--1-3-1-3-------------1--1-------|
|--------------------------------------------|


|-------------------------------|
|-------------------------------|
|--2-0-2----0-0---------0-------|
|-0----------3-----3-2-0--3-2-0-|  Riff 2
|-------3--3---1--1----------4--|
|-------------------------------|


|-1-111-0-1-3-4-3-4-6-8---1-111-0-1-3-4-3-------|
|-3-333-1-3-5-6-5-6-8-10--3-333-1-3-5-6-5-5---6-|
|-----------------------------------------5-5-7-|  
|-------------------------------------------7---|    Solo
|-----------------------------------------------|
|-----------------------------------------------|

Fuente: Tusacordes