a b c d e f g h i j k l m n o p q r s t u v w x y z 0-9

Mi Perro Dinamita

Patricio Rey Y Sus Redonditos De Ricota

			
Es superr facill!! , espero que les guste xD

|------------------------------|
|------------------------------|
|-------------0----3--3--2--0--|
|--------2---------------------|  X4
|-----3------------------------|
|------------------------------|

|------------------------------|
|-----------1--4-4--3---1------|
|--------2---------------------|   X2
|----3-------------------------|  
|------------------------------|
|------------------------------|

|------------------------------|
|------------------------------|
|-------------0----3--3--2--0--|
|--------2---------------------|  X2
|-----3------------------------|
|------------------------------|

Fuente: Tusacordes