a b c d e f g h i j k l m n o p q r s t u v w x y z 0-9

Mi Perro Dinamita

Patricio Rey Y Sus Redonditos De Ricota

			
bueno es una tab no muy dificil de hacer pero si muy 
larga

G-------------------------------------------
D-----22-----------22---------22----------22
A----------------2----------------------2---
E-2-4----4-2-2-4------4-2-2-4---4-2-2-4-----

G---------------------------
D---------------------------  eso es la intro
A---------22---------6h4----
E-4-2-2-4----4-2-2-4-----2-4
____________________________________________________________
silencio
PORRRRR KE SI ES UN ROCKANRROOOLLLL!!!!!!!!1
G--------
D--------
A--------
E-3333333

G---------------
D---------------
A-5------5-3----    x3
E---3-5-3----5-3

G-----------------------------------------------------------
D-----------------------------------22-----------22------44-
A-----244-2---6h4------2-44-2-----2------------2------------
E-24-------2-----22-4--------2-4------4-22-4------4224----42

sigue...
G-----------
D-----44----
A-----------
E-2-4----4-2
____________________________________________________________
silencio

G--------
D--------
A--------   despues de esto es todo igual a la intro
E-3333333   hasta ke hace lo siguiente...

G------------------------------------------------------
D------22-----------------22--------------44------44---
A----2--------2442------2-------2442-------------------
E-24------4224-----2442------42------4224----4224----42
____________________________________________________________
silencio solo de saxo

G-------------
D-------------
A-------------
E-333333333333

G----------------      G----------------
D-----------22---      D----------------
A-42------2------   x2 A----2442---42---
E----4224------42      E-24------2----42

G---------------------------------
D------22--------------22---------
A----2-------42------2-------24---
E-24------42----4224------42----42
___________________________________________________________

G----------------
D----------------
A-42------242----   x2
E----4224-----422

G----------
D----------
A----2442--   x2
E-24------2

G----22---
D---------
A---------
E-24----42

G----------
D----------
A----2442--   x2
E-24------2
____________________________________________________________

silencio igual al solo de saxo
____________________________________________________________

silencio igual al verso ke esta encima del de saxo
____________________________________________________________

G-------------------------------------------------------
D---------------------22--------22--------44------------
A---2442----2442----2---------2---------2---------2442--
E-24-----24------24------4224------4224------4224------2

G------------------------------
D------22--------44------------
A----2---------2---------2442--
E-24------4224------4224------2

cierre
G-----------
D-----------
A-----------
E-33333----3

weno... eso es todo, espero ke la disfruten y si tienen
dudas correcciones o si kieren hacerse amigos/as
de un bajista eskribanme a tincho@bassplayer.cc
adioooooossss

Fuente original ATAME [www.atame.org]
Colaborador original: Martín Rey [tincho@bassplayer.cc]

Fuente: tusacordes.com