a b c d e f g h i j k l m n o p q r s t u v w x y z 0-9

Mi Genio Amor

Patricio Rey Y Sus Redonditos De Ricota

			
Este es el saxo pasado a guitarra... uhaeuhae atata disfrutenlo
Saxo:


e|-------------------------------------------------8-7--------8-7--------8-7----------------------10---8-10/12--10-10--|
B|-------------------------------------5b5b5b----5-----8----------8----------8------5-7-8-8p7p8-10---------------------|
G|---7-7--7---7-7--7---7b7b7b--5b5b5b----------7---------7--7-------7-7--------7-------rapida----------------------|
D|--5-5--5---5-5--5----------------------------------------------------------------------------------------------------|
A|---------------------------------------------------------------------------------------------------------------------|
E|---------------------------------------------------------------------------------------------------------------------|

e|-8-10/12-10-10----5-8/10-8-8----5/8-7--------------8-7--------8-7--------8-7----------------------|
B|--------------------------------------8-----8----------8----------8----------8----5--7--8---|
G|----------------------------------------7-7---7-7--------7-7--------7-7---------------------------|
D|--------------------------------------------------------------------------------------------------|
A|--------------------------------------------------------------------------------------------------|
E|--------------------------------------------------------------------------------------------------|

Puente:
e|-------------|
B|--8^5--------|
G|------7/---|
D|-------------|
A|-------------|
E|-------------|



-
Saxo final:

e|----------------------------|
B|-8b8b8b--------8b8b8b-------|
G|--------7b7b7b-------7b7b7b-|
D|----------------------------|
A|----------------------------|
E|----------------------------|


e|---------------------------------10b-8----8---------8-10/12-10-10----5-8/10-8-8---5/8-7-------------8--10--12b--|
B|--8b8b8b---8-8/10-12b-12p10-8----------10---10-8----------------------------------------8---8-8---8-----------------|
G|---------7----------------------------------------------------------------------------------7-----7-------------------|
D|----------------------------------------------------------------------------------------------------------------------|
A|----------------------------------------------------------------------------------------------------------------------|
E|----------------------------------------------------------------------------------------------------------------------|

                                                             lo sigue la guitarra
e|-------------------------------------------7--------|-----------------------------|
B|-12-12-10----8-8p10p8----5-5h8--8p5p8-------------|---8--7-5--------------------|
G|------------------------------------------------------|-----------7/----------------|
D|------------------------------------------------------|-----------------------------| fin
A|------------------------------------------------------|-----------------------------|
E|------------------------------------------------------|-----------------------------|

Fuente original ATAME [www.atame.org]
Colaborador original: Pablito Gabriel [Pablitogabriel@hotmail.com]

Fuente: tusacordes.com