a b c d e f g h i j k l m n o p q r s t u v w x y z 0-9

Me Perro Dinamita

Patricio Rey Y Sus Redonditos De Ricota

			
G|----------------|x4
D|------2-3-5-3-2-|
A|-3--3-----------|
E|----------------|
 
 |------2-3-5-3-2-|x2
 |-3--3-----------|
 |----------------|
 |----------------|

 |----------------|x2
 |------2-3-5-3-2-|
 |-3--3-----------|
 |----------------|

 |----------------|x2
 |----------------|
 |------2-3-5-3-2-|
 |-3--3-----------|

Escuchá la canción para saber el ritmo

Fuente original ATAME [www.atame.org]
Colaborador original: Sebastián Vidondo [rojoamargodelsiglo@yahoo.com.ar]

Fuente: tusacordes.com